Showing posts with label emmas lullaby. Show all posts
Showing posts with label emmas lullaby. Show all posts

20161030

EMMA'S LULLABY TAB (KENZIE NIMMO & HARRIS HELLER ORIGINAL ONE-TAKE)

Kenzie Nimmo & Harris Heller sing Emma's Lullaby.
Standard tuning with Capo on the 3rd fret.
See the TAB under the video.



KENZIE NIMMO & HARRIS HELLER EMMA'S LULLABY TAB

GP5 + GP6 + PDF >>

Intro                        CAPO on the 3rd

e-----------------------------------------------------------------------
B-------3-----3---------3-----3-----------------------------------------
G-----0-----0-----0---0-----0-----0-------------------------------------
D-----------------------------------------------------------------------
A---3-----3-----3---3-----3-----3---------------------------------------
E-----------------------------------------------------------------------


Verse

e-----------------------------------------------------------------------
B-------3-----3---------3-----3---------3-----3---------3-----3---------
G-----0-----0-----0---0-----0-----0---0-----0-----0---2-----2-----0-----
D-----------------------------------------------------------------------
A---3-----3-----3---3-----3-----3---------------------------------------
E-----------------------------------3-----3-----3---2-----2-----2-------


e-----------------------------------------------------------------------
B-------3-----3---------3-----3---------3-----3---------3-----3---------
G-----0-----0-----0---2-----2-----0---0-----0-----0---0-----0-----0-----
D-----------------------------------------------------------------------
A-----------------------------------3-----3-----3---3-----3-----3-------
E---0-----0-----0---2-----2-----2---------------------------------------