Showing posts with label eric. Show all posts
Showing posts with label eric. Show all posts

20161110

ROY ORBISON ONLY THE LONELY TAB (INSTRUMENTAL GUITAR COVER PLAYED BY ERIC)

Eric plays Only The Lonely by Roy Orbison with his Fender Stratocaster.
Great instrumental guitar cover.
See the TAB under the video.



ONLY THE LONELY INSTRUMENTAL TAB

GP5 + GP6 + PDF >>

Original intro

e-----------------------------------------------------------------------
B-----------------------------------------------------------------------
G-------0---2--------------------------------0---2----------------------
D---3------------------------------------3-----------0~----0~-----------
A---------------3~----3~------------------------------------------------
E-----------------------------------------------------------------------


e-----------------------------------------------------------------------
B-----------------------------------------------------------------------
G-------0---2---0-------------0-----------------------------------------
D---3-------------3-2-3~-------3-2~------2-3---5-5-3~-------------------
A-----------------------------------------------------------------------
E-----------------------------------------------------------------------


e-----------------------------------------------------------------------
B-----------------------------------------------------------------------
G-----------------------------------------------------------------------
D---2-3---5-5-3~--------------------------------------------------------
A-----------------------------------------------------------------------
E-----------------------------------------------------------------------



20151107

BILLIE JOE SPEARS BLANKET ON THE GROUND TAB (INSTRUMENTAL COVER BY ERIC)

Blanket on the Ground instrumental guitar cover played by Eric.
Original song by Billie Joe Spears.
See the TAB under the video.



BLANKET ON THE GROUND TAB

GP5 + GP6 + PDF >>

Part 1

e-----------------------------------------------------------------------
B-----------------------------------------------------------------------
G-----------------------------------------------------------------------
D---0-0-----1--0h1p0-------0--0~----------------------------------------
A--------------------3--1-----------------------------------------------
E-----------------------------------------------------------------------


e-----------------------------------------------------------------------
B-----------------------------------------------------------------------
G-----------------------------------------------------------------------
D---0-0-----1--0h1p0----------------------------------------------------
A--------------------3--1--3~-------------------------------------------
E-----------------------------------------------------------------------


e-----------------------------------------------------------------------
B-----------------------------------------------------------------------
G-----------------------------------------------------------------------
D-----------------------3h4p3-------------------------------------------
A---3--3-----3-5--3--5--------5--3~-------------------------------------
E-----------------------------------------------------------------------


20130121

ERIC CLAPTON SUNSHINE OF YOUR LOVE TAB (ACOUSTIC)


Eric Clapton plays Sunshine of your love with a Martin Belezza Nera guitar.
See the TAB below.



ERIC CLAPTON SUNSHINE OF YOUR LOVE TAB

PDF >>

Intro

e-----------------------------------------------------------------------
B-/10-10--8-10.---------------------------------------------------------
G-/11-11--9-11.---------------------------------------------------------
D-/12-12-10-12.---------------------------------------------------------
A-----------------/12.--11.--10.------8'--------------------------------
E---------------------------------/10-----10----------------------------


e-----------------------------------------------------------------------
B-10.-10--8-10.--------------------12-----------------------------------
G-11.-11--9-11.--------------------12-10'-------------------------------
D-12.-12-10-12.--------------------12------12---------------------------
A-----------------/12.--11.--10.----------------------------------------
E-----------------------------------------------------------------------


Verse

e-----------------------------------------------------------------------
B--10-10--8-10.---------------------------------------------------------
G--11-11--9-11.---------------------------------  4 times  -------------
D--12-12-10-12.---------------------------------------------------------
A-----------------/12.--11.--10.------8'--------------------------------
E---------------------------------/10-----10----------------------------