Showing posts with label fingerstyle. Show all posts
Showing posts with label fingerstyle. Show all posts

20171106

DJANGO REINHARDT TEARS TAB (GUITAR COVER BY SAMANTHA WELLS)

Samantha Wells plays Tears by Django Reinhardt
Nice guitar cover in standard tuning
Download the TAB below



DJANGO REINHARDT TEARS TAB

GP5 + GP6 + PDF >>

Part 1

e---------------------------------3---1---------------------------------
B---------1-----------1---------3------------5/6---5--------------------
G---------2-----------2-------2-------------4---------------------------
D-------2-----------2---------------------0-----------------------------
A---0---------0-3---------0-2-------------------------------------------
E---------------------------------------4-------------------------------


e---------------------------------3---1---------------------------------
B---------1-----------1---------3------------5/6---5--------------------
G---------2-----------2-------2-------------4---------------------------
D-------2-----------2---------------------0-----------------------------
A---0---------0-3---------0-2-------------------------------------------
E---------------------------------------4-------------------------------


e-------0-0---0-1-----1-------------------------------------------------
B-------2-2---2-2-----2-----3-------3---------3-------------------------
G-------0-0---0-0-----0-----2---------2-----2---------------------------
D-------2-----------2-------3-----3-------3-----------------------------
A---1-----------1-----------0-------------------------------------------
E---------------------------------------1---------x---------------------

20171008

EGOIST ALL ALONE WITH YOU TAB (FINGERSTYLE GUITAR COVER)

All Alone With You fingerstyle guitar cover played by heechan.
Original song by EGOIST. Dropped D tuning and CAPO on the 2nd fret.
Download the tab files below.



ALL ALONE WITH YOU FINGERSTYLE TAB

GP5 + GP6 + PDF >>

Part 1

e---5<17>-4<16>---------------------------------------------------------
B---------------5<17>-<12>----------------------------------------------
G----------------------------2<14>---1<13>---2<14>p1<13>----------------
D--------------------------------------------------------2<14>---<12>---
A-----------------------------------------------------------------------
D---0--------------------------------------2----------------------------


e---------0--------------------------<12>-------------------------------
B-------0-----------------------<12>------------------------------------
G---1-2-------------1<13>-2<14>-----------------------------------------
D-----------------------------------------------------------------------
A-----------------------------------------------------------------------
D---4-------------------------------------------------------------------


e-------------------------------------------------0---------------------
B---------------------------------------------0-----------------0-------
G---1-----2---------1-----2-----------------------------------2---2-----
D-----------------------2-----------6---6-7-----------------------------
A---------------------2---------------4---------------------------------
D---0---------------2---------------4-----------------------------------

20170821

AUTUMN LEAVES TAB (CLASSICAL GUITAR COVER BY NATHALIE JOST)


Autumn Leaves classical guitar cover played by Nathalie Jost
Download the tab below.



AUTUMN LEAVES FINGERSTYLE TAB

GP6 + GP5 + PDF >>

Part 1

e-----------1----------------------------------0------------------------
B------0-1------------3---1--0--------------0---------------------------
G---2-------------2----------------0------2-----------------------------
D-------------0---------------------------------------------------------
A-----------------------------------------------------------------------
E------------------------------3-------3--------------------------------


e--------------0---------0----------------------------------------------
B-------1---0----0-------1-----------3----------------------------------
G--------------------2----------0-2-------------------------------------
D----------------------------3------------------------------------------
A---3-------2--------0--------------------------------------------------
E-----------------------------------------------------------------------


e-----------------------------------------------------------------------
B--------------3--------------------------------------------------------
G-------2--------2--1---------------------------------------------------
D-------------------------2---------------------------------------------
A-----------------------------------------------------------------------
E---1-------1---------0-------0--2-4------------------------------------


20170807

BEE GEES HOW DEEP IS YOUR LOVE TAB (FINGERSTYLE GUITAR COVER BY GIAN PIERO FERRINI)

Gian Piero Ferrini plays a great fingerstyle guitar cover of How Deep Is Your Love.
Dropped D tuning with CAPO on the 2nd fret. (original song by Bee Gees)
Download the Guitar Pro 6 and PDF files below.



GIAN PIERO FERRINI HOW DEEP IS YOUR LOVE TAB

GP6 + PDF >>

Intro

e-----------------------------------------------------------------------
B-----------------------0-------------------------------0---------------
G-----------0--h2---------------0---------------2---------------0-------
D-------0-----------0-------0-----------0--h4-------4-------4-----------
A-----------------------------------------------------------------------
D---5-------------------------------5-----------------------------------


e-----------------------------------------------------------------------
B---------------0-------------------0h1-----------------1---------------
G-----------0-----------0-------0---0-----------0-----------------0-----
D-------2-----------2-------2-------2-------2-------2-------0h2---------
A---3-------------------------------0-----------------------------------
D-----------------------------------------------------------------------


e-----------------------------------------------------------------------
B-----------------------0-------------------------------0---------------
G-----------0--h2---------------0---------------2---------------0-------
D-------0-----------0-------0-----------0--h4-------4-------4-----------
A-----------------------------------------------------------------------
D---5-------------------------------5-----------------------------------

 

20170706

ANA VIDOVICH G MINOR SONATA GUITAR TAB (J. S. BACH)


Ana Vidovich plays Sonata No. 1 in G minor by J. S. Bach
The amazing part from 3:33 - 8:06 is transcribed.
Download the Guitar Pro 6 and PDF files below.



ANA VIDOVICH G MINOR SONATA GUITAR TAB

GP6 + PDF >>

Part 1

e-----------------------------------------------------------------------
B-------------------------------------------4---------------3-----------
G-------7.--7.--7.--7~--5-3-5---2.--3-------3-------2-------------------
D---------------------------------------5.--5.--5---5---3-1-3---0-------
A-----------------------------------------------------------------------
E-----------------------------------------------------------------------


e-------3-------3---3---1---1-------------------------------------------
B---4-------1-------------4-----3---4---------------------3.--3.--3-----
G-------------------3-------2-------0---------3-2-4h5---------0---------
D---1-------1-------0-------0-------------------------4-----------------
A-------------------------------------------3---0-----3-------1---------
E---------------------------------------3-------------------------------


e---------------------------6-------6---5---5---------------------------
B---3---1-------------------6-------------8---7-8---7---------8---------
G---------3-5---2.--3-------7-------5---------------5-8-7-5-------------
D---2-------4-------5---3-------0-------------------0-------8---7-5-----
A---0-------5-------------6-8-------6-----------------------------------
E-------------------3---------------------------------------------------


20170612

DR. VIOSSY & DIANA LONG TRAIN RUNNING TAB (FINGERSTYLE SOLO PART)

Dr. Viossy & Diana play Long Train Running by The Doobie Brothers.
One Dr.Viossy guitar, Diana's great voice and percussion. 1 step-down tuning.
Nice fingerstyle solo part around 1:44 - 2:27. Download this TAB below.



DR. VIOSSY & DIANA LONG TRAIN RUNNING TAB

GP5 + GP6 + PDF >>

Solo  (1:44 - 2:27)

d-----------------------------------------------------------------------
A---------------6.--5-----3.------------10h11--10.----10----8.----------
F---------3.--------------3.------------10-----10.----10----8.----------
C---3h5---3.----5.--5-----------3h5-----10h12---------------------------
G---3h5-x-----x---------------x-3h5-x--------10-------8-----8.----------
D-----------------------------------------------------------------------


d-----------------------------------------------------------------------
A-----8h10--------------------------------------------------------------
F-----8h10p0---3p0-5p0-6/7.----10.----12.--15p0---3p0-5p0-6/7.----------
C--------------3p0-5p0-6/7.----10.----12.--15p0---3p0-5p0-6/7.----------
G----------------------------x------x-----------------------------------
D---8-------------------------------------------------------------------


d------------------6p5p3------------------------------------------------
A------6.--5.--3.-------6p5p3-5p3---------------------------------------
F------5.--5.--3.------------6---6p5p3-5p3------------------------------
C---5h7----5.--3.---------------------5---5-5p3-----3-------------------
G----------------------------------------------5-3h5-5p3-------4/5-8----
D-------------------------------------------------------6-3h6h8---------


20170404

BIG BILL BROONZY GLORY OF LOVE TAB (INTRO)


Big Bill Broonzy - Glory Of Love guitar cover played by Eddie.
The intro part is so cool that it worth a try.
Download the Guitar Pro 6, GP5 and PDF files below.



BIG BILL BROONZY GLORY OF LOVE TAB

GP5 + GP6 + PDF >> 

Intro 

e---------0---------------------1.----1---------------------------------
B-------1-----------1-----------0.----0-----0---------------------------
G---------------------2---0-----0.----0-------2---0---------------------
D-----------------------------------------------------------------------
A---x-----3-----3-----3-----3-----x-----x-----x-----x-------------------
E---3-----x-----x-----x-----x-----3-----3-----3-----3-------------------


e---3.----3-------------------3.----1-----------------------------------
B---1.----1-------------------1.----1-----1-----------------------------
G---0.----0-----------------------------2-----2-------------------------
D-----------------------------------------------------------------------
A-----3-----3-----3-----3-----x-----x-----x-----x-----------------------
E-----x-----x-----x-----x-----1-----1-----1-----1-----------------------


e---------0.------0-----------------------------------------------------
B---1-----1.----1-----3p1---------3.----1h3-----0-----------------------
G---0-----------------------0-----0.----0-----0-------------------------
D---------------------------0-------------------------------------------
A-----3-----3-----3-----3-----x-----x-----x-----x-----------------------
E-----x-----x-----x-----x-----3-----3-----3-----3-----------------------


20170224

GIPSY KINGS NO VOLVERE TAB (INSTRUMENTAL GUITAR COVER)


Gipsy Kings - No Volvere instrumental guitar cover played by Tamer Zeynioglu.
Standard tuning. See the TAB under the video.



GIPSY KINGS NO VOLVERE TAB

GP5 + GP6 + PDF >>

Part 1

e--------3~-------------------3--3---2-2---0-0h2p0-----0-3.-------------
B---0--------0-----0-------0-----------------------3-3------------------
G---------------0-------0-----------------------------------------------
D-----------------------------------------------------------------------
A-----------------------------------------------------------------------
E--------0------------0----------0---------0----------------------------


e---2--------2-----------2--2~---0-0h2p0--------------2-----------------
B---------3-----------3------------------3-3~---1-1-3-------------------
G------2-----------2----------------------------------------------------
D---0-----------0-----------0--------------0----------------------------
A-----------------------------------------------------------------------
E-----------------------------------------------------------------------


e---0--------0--------0-2-3.----------------------0-2.------------------
B---------1-------------------1--------1--------3-----------------------
G------0-----------0----------------2--------2--------------------------
D---------------2----------------2--------------------------------------
A---3-------------------------0-----------0-----------------------------
E-----------------------------------------------------------------------


20161221

CELINO ROMERO LA PALOMA 2 TAB (CLASSICAL GUITAR COVER)

Celino Romero plays La Paloma 2, very nice classical guitar cover.
He is using Dropped D tuning.
Download the Guitar Pro tab below.



CELINO ROMERO LA PALOMA 2 TAB

GP5 + GP6 + PDF >>

e-----------------------------------------------------------------------
B-----------------------------------------------------------------------
G-----------------------------------------------------------------------
D------------0-----------------0-----------------0----------------------
A----------0-----0-----------0-----0-----------0-----0------------------
D--0-----------------0-----------------0--------------------------------
   x       x x   x   x       x x   x   x       x x   x


e-----------------------------------------------------------------------
B-----------------------------------------------------------------------
G-----------------------------------------------------------------------
D------------0---4-/-7~---------------------------------9~--------------
A----------0-----------------0-5.--0-------9---10-12--0-----------------
D--0-----------------0-----------------0--------------------------------
   x       x x


e-----------------------------------------------------------------------
B-----------------------------------------------------------------------
G-----------------------------------------------------------------------
D----11~---12-9-11----7---7\5--------------------------------<7>--------
A-------------------0---------------0-4.--7.-------------<7>------------
D--0-------------------------------------------<7>----------------------


20161209

AA BONDY I'M SO LONESOME I COULD CRY TAB (HANK WILLIAMS SONG)

AA Bondy plays I'm So Lonesome I Could Cry by Hank Williams.
Very nice fingerpicking and a harp solo. Standard tuning + CAPO on the 2nd.
See the TAB under the video.



AA BONDY I'M SO LONESOME I COULD CRY TAB

GP5 + GP6 + PDF >>

Intro                   - Capo on the 2nd -

e-------------0---------------------------------------------------------
B---1-----------------1-------0-----0h1-------0-------1-------1---------
G---------0-------0-------0-------0-------0-------0-------0-------0-----
D-------2-------2-------2-------2-------2-------2-------2-------2-------
A---3---------------3---------------3---------------3-------------------
E-----------3---------------3---------------3---------------3-----------


e-------------------------3p0-----------------0-----3---0-----0---------
B-----1-----3p1---1-------------3p1-----1-------------------3-----------
G---------2-----2-----0-------0-----0-----0-------0-------0-------0-----
D-------3-------3-------2-------2-------2-------2-------2-------2-------
A-------------------3-------3-------3-------3-------3-------3-----------
E---1-------1-----------------------------------------------------------


e-------3-----3-----1-------------------------0---------------0---------
B-----------------0-----------------1---------------0h1-----------------
G-------------------------0-------0-------0-------0-------0-------------
D-------0-------0-------0-------0-------2-------2-------2-------2-------
A---------------------------0h2-----3---------------3-------------------
E---3-------3-------3-----------------------3---------------3-----------


20161105

ZORBA THE GREEK TAB (FINGERSTYLE COVER BY CACHO TIRAO)

Zorba the Greek (Zorba el Griego) played by the great Cacho Tirao.
Awesome fingerstyle version from a live TV show.
See the TAB under the video.



CACHO TIRAO ZORBA THE GREEK TAB

GP5 + GP6 + PDF >>

Part 1

e---------5.--------------5.--------------5.--------------5.------------
B---------5.--------------5.--------------5.--------------5.------------
G---------6.--------------6.--------------6.--------------6.------------
D-----------------------------------------------------------------------
A-0.------------------------------0.------------------------------------
E-----------------0.------------------------------0.--------------------


e-----------------------------------------------------------------------
B-4/5~------5.--------------5-----4/5~------5.--------------5-----------
G-----------6.--------------6---------------6.--------------6-----------
D-----------7.--------------7---------------7.--------------7-----------
A-0.------------------------------0.------------------------------------
E-------------------0.------------------------------0.------------------


e-----------------------------------------------------------------------
B-7p5-4-4/5~------5.--------------5-----4/5~------5.---------------5.---
G-----------------6.--------------6---------------6.---------------6.---
D-----------------7.--------------7---------------7.---------------7.---
A-------0.------------------------------0.------------------------------
E-------------------------0.-------------------------------0.-----------


20161003

ELVIS PRESLEY LOVE ME TENDER TAB (FINGERSTYLE GUITAR COVER BY KYÖSTI RAUTIO)

Nice and easy fingerstyle guitar cover of Love Me Tender played by Kyösti Rautio.
Standard tuning!
Download the Guitar Pro Tab below.



LOVE ME TENDER FINGERSTYLE TAB

GP5 + GP6 + PDF >>

Part 1

e-------3-------3-------3-------3---------------------------------------
B-------3-------3-------3-------3---------------------------------------
G-------0-------0-------0-------0---------------------------------------
D-----------0---------------0-------------------------------------------
A-----------------------------------------------------------------------
E---3---------------3---------------------------------------------------


e-------3---2---3-/-5~------5~------3---2---0---2---3-----------3-------
B---3-------------------5-----------1-------1-----------3-------3-------
G-----------------------------------2-------2-----------0-------0-------
D-----------------------------------0-----------------------0-----------
A-----------2-------4-----------------------0---------------------------
E---3-----------------------5-----------------------3-------------------


e-------3---2---3-/-5~------5~------3---2---0---2---3-------3-----------
B---3-------------------5-----------1-------1---------3---3-------------
G-----------------------------------2-------2-----------0---------------
D-----------------------------------0-----------------------------------
A-----------2-------4-----------------------0---------------------------
E---3-----------------------5-----------------------3-------------------


20160912

HANSEL PETHIG MAD WORLD TAB (FINGERSTYLE GUITAR COVER OF GARY JULES'S SONG)

Brilliant fingerstyle guitar cover of Mad World (Gary Jules) played by Hansel Pethig.
Dropped D tuning with CAPO on the 8th fret.
Download the Guitar Pro Tab below.



HANSEL PETHIG MAD WORLD TAB

GP5 + GP6 + PDF >>

Part 1

e------0----------------------------------------------------------------
B---1-----0--1-----0-----------------------------1----------------------
G---------------2-----0-------------------------------------------------
D---------2-----------2--4-----------2-----0----------------------------
A---0-----------0-----------------0-----------0-------------------------
D---------------------------0-----------0-------------------------------


e------0----------------------------------------------------------------
B---------0--1-----0--1--3----------------------------------------------
G---------------2--------0-----------0----------------------------------
D---------2-----------2-----------2-----4--2--0-------------------------
A---0-----------0--------------0-----------------3----------------------
D---------------------------0-------------------------------------------


e------0----------------------------------------------------------------
B---1-----0--1-----0-----------------------------1----------------------
G---------------2-----0-------------------------------------------------
D---------2-----------2--4-----------2-----0----------------------------
A---0-----------0-----------------0-----------0-------------------------
D---------------------------0-----------0-------------------------------



20160602

DR VIOSSY BOHEMIAN RHAPSODY FOR SOLO GUITAR TAB (QUEEN)

Dr. Viossy plays Bohemian Rhapsody for solo guitar. Brilliant fingerstyle arrangement!
It's possible to play this piece with a normal 6 string guitar as the low B string (7th string) is not being used too much. Original song by Freddie Mercury (Queen)
See the TAB under the video.


DR VIOSSY BOHEMIAN RHAPSODY FOR SOLO GUITAR TAB

GP6 + GP5 + PDF >>

e-----------------------------------------------------------------------
B---10.--10.--10.--10-------10---\--------------------------------------
G---11.--11.--11.--11-------11---\--------------------------------------
D---14.--14.--14.--14-------14---\--------------------------------------
A-----------------------------------------------------------------------
E-----------------------------------------------------------------------
B-----------------------------------------------------------------------


e-----------------------------------------------------------------------
B---10.--10---10.--10---10-7--------------------------------------------
G---11.--11---11.--11---11-8--------------------------------------------
D---13.--13---14.--13---11-9--------------------------------------------
A-----------------------------------------------------------------------
E-----------------------------------------------------------------------
B-----------------------------------------------------------------------


e-----------------------------------------------------------------------
B---9---9---9---9h10---9------------------------------------------------
G---9---9---9---9h11---9------------------------------------------------
D-----------------------------------------------------------------------
A-----------------------------------------------------------------------
E--------------------------<12>---<12>----------------------------------
B-----------------------------------------------------------------------


20160422

AHN JUNG-JAE 'GIRL' TAB (안중재 '소녀' TAB 응답하라 1988 OST)

The video title on YouTube says: 응답하라 1988 OST '소녀'
Incredible fingerstyle guitar playing by Ahn Jung-jae.
See the TAB under the video.



AHN JUNG-JAE 'GIRL' TAB

GP5 + GP6 + PDF >>

e-----------------------------------------------------------------------
B-----------------------------------------------------------------------
G-----------------------------------------------------------------------
D-----------------------------------------------------------------------
A-------------------------------7---------------------------------------
E---0-----0-x---0-----------x-----7-0-----0-x---0-----------x-----------
    x     x     x               x x x     x     x


e-----<12>--------------------------------------------------------------
B--<12>-----------------------------------------------------------------
G-----------------------------------------------------------------------
D-----------------------------------------------------------------------
A----------------------------------7------------------------------------
E------0-----0-x---0-----------x-----7-0-----0-x---0--------------------
       x     x     x               x x x     x     x


e------------7----7h9---/10\9p7-----------------------------------------
B---------8/9----9------------------------------------------------------
G-----------------------------------------------------------------------
D---------8/9-----------------------------------------------------------
A-----------------------------------------------------------------------
E---0-------------------------------------------------------------------
    x


20160327

MATCHBOX TWENTY UNWELL TAB (FINGERSTYLE COVER BY THE STRAY ANT)

Great fingerstyle guitar cover of the song Matchbox Twenty - Unwell.
Arranged and played by The Stray Ant. Standard Tuning.
See the TAB under the video.



MATCHBOX TWENTY UNWELL FINGERSTYLE TAB (THE STRAY ANT)

GP5 + GP6 + PDF >>

Part 1

e-------5h7p5-----------5h7p5---5---------7p5-----------5h7p5-----------
B---5h7-------7p5---5h7---------5-------------7p5---5h7-----------------
G-----------------------------------------------------------------------
D-----------------------------------0-------------0-------------0-------
A---0-------------0-----------------------------------------------------
E-----------x---------------x---------------x---------------x-----------


e-------5h7p5-----------5h7p5.--4-----------4-------5---4---------4-----
B---5h7-------7p5---5h7---------5-----------5-------5---5-------5-------
G-----------------------------------------------------------------------
D---4-------------4-----------------------------------------------------
A-----------------------------------------------------------------------
E-----------x---------------x-------0-------x-----0---------x-0---------


e-------5h7p5-----------5h7p5---5---------7p5-----------5h7p5-----------
B---5h7-------7p5---5h7---------5-------------7p5---5h7-----------------
G-----------------------------------------------------------------------
D-----------------------------------0-------------0-------------0-------
A---0-------------0-----------------------------------------------------
E-----------x---------------x---------------x---------------x-----------



20160226

PIRATES OF THE CARIBBEAN THE BLACK PEARL TAB (CLASSICAL GUITAR COVER BY JUERGEN SCHENK)

Jürgen Schenk plays a great classical guitar arrangement of The Black Pearl
from Pirates of the Caribbean. He is using Dropped D tuning !!!
See the TAB under the video.



PIRATES OF THE CARIBBEAN THE BLACK PEARL TAB

GP5 + GP6 + PDF >>

Part 1

e-----------------------------------------------------------------------
B-----------------------------------------------------------------------
G---------------------------1--2--1-------------------------------------
D---0--1--0--1--0--1--3--4-----------4--3--4-----1----------------------
A---0-----------------------------------------3-------------------------
D---0-----------------------0-------------------------------------------


e-----------------------------------------------------------------------
B-----------------------------------------------------------------------
G---------------------------1--2--1-------------------------------------
D---0--1--0--1--0--1--3--4-----------4--3--4-----1----------------------
A---------------------------------------------3-------------------------
D---0-----------------------0-------------------------------------------


e-----------------------------------------------------------------------
B-----------------------------------------------------------------------
G-----------------------------------------------------------------------
D---0--1--0--1--0--1--3--4--3--1--3--4--3--1-----1----------------------
A---------------------------------------------3-------------------------
D---0-----------------------0-------------------------------------------


20151212

HANSEL PETHIG REDEMPTION SONG TAB (FINGERSTYLE COVER OF BOB MARLEY SONG)

Hansel Pethig plays a fingerstyle guitar cover of Bob Marley's Redemption Song.
He is using standard tuning with CAPO on the 3rd fret.
See the TAB under the video.



HANSEL PETHIG REDEMPTION SONG TAB

GP5 + GP6 + PDF >>

Part 1

e-----------------------------------------------------------------------
B-----------------------------------------------------------------------
G-----------------------------------------------------------------------
D-----------------------2---0-------------------0-----------------------
A---------0-2-------3-----------2---------0-2-------3-2-0---------------
E---3-----------3.------------------3-----------------------3-----------


e-----------------------------------------------------------------------
B-----------------------------------------------------------------------
G-----------------------------------------------0-----------------------
D-----------------------2---0-------0-----------0-------0---0-----------
A---------0-2-------3---------3-2-0-2-----0-2-------3-2-0---2-----------
E---3-----------3.------------------3-----------------------3-----------


Part 2

e-----------------------------------------3-----------------------------
B---0-3/5-3-------1-0-1---3-----------3/5-------------------------------
G---------------------------------2---2/4-------------------------------
D---------------0-------0-------0---------------------------------------
A-----------------------------------------------------------------------
E-----------3-------3-------2-------2-----------------------------------


20151205

KLAUS SCHINDLER YESTERDAY TAB (FINGERSTYLE COVER OF THE BEATLES SONG)

Klaus Schindler plays a very nice and easy fingerstyle guitar cover of Yesterday.
Standard tuning.
See the TAB under the video.



KLAUS SCHINDLER YESTERDAY TAB

GP5 + GP6 + PDF >>

Part 1

e-------------------------------------------0---2---4---5---7---8-------
B---3---1---1-----------------------------------------------------------
G---0-----------0-------------------------------------------------------
D-------------------2---------------------------------------------------
A---3-----------------------3-------2-----------------------------------
E---------------------------------------------------0-------------------


e---7-----------5---5-----------------------5---5---3---1---0-----------
B---------------------------------------------------------------3-------
G-------------------2-------0-----------5-----------0-------------------
D-----------------------------------3-----------------------------------
A---0-------0-----------------------------------------------------------
E-----------------------------------------------------------------------


e---1-----------0---0-----------------------0---------------------------
B-------------------1-------3-------1-------0-------3-------------------
G-----------0---------------0-------2---------------2-------2-----------
D-----------------------------------------------------------------------
A---3---------------3-------2-------0-----------------------------------
E-------------------------------------------3-------2-------------------


20151126

GABRIELLA QUEVEDO NOTHING ELSE MATTERS TAB (FINGERSTYLE GUITAR COVER OF THE METALLICA SONG)

Gabriella Quevedo's fingerstyle guitar cover of Nothing Else Matters.
Original song by Metallica.
See the TAB under the video.



GABRIELLA QUEVEDO NOTHING ELSE MATTERS TAB

GP5 + GP6 + PDF >>

Intro

e-----------------------------------------------------------------------
B---------------0-----------------------0-------------------------------
G---------------0-----------------------0-------------------------------
D-----------2-------2---------------2-------2---------------------------
A-------2---------------2-------2---------------2-----------------------
E---0-----------------------0-------------------------------------------


e-----------------------------------------------------------------------
B---------------0-----------------------0-------0.----------------------
G---------------0-----------------------0-------------------------------
D-----------2-------2---------------2-------2---------------------------
A-------2---------------2-------2---------------------------------------
E---0-----------------------0-------------------------------------------


e-----------------------------------------------------------------------
B---0-----------0-------------------------------------------------------
G-----------------0-----------------4.--5---4h5p4-2---4---2h4p2---------
D-----------2-------2---------------2.------2---------2---------2.------
A-------2-----------------------2---------------------------------------
E---0-------------------3'--0-------------------------------------------