Showing posts with label flatpicking. Show all posts
Showing posts with label flatpicking. Show all posts

20141214

THE BEAUMONT RAG TAB (FLATPICKING COVER BY SHANE BUMGARNER)

The original video title says: Flatpicking The Beaumont Rag.
Great song played with two acoustic guitars.
See the TAB under the video.


THE BEAUMONT RAG FLATPICKING TAB

PDF >>

Intro

e-----------------------------0-----------------------------------------
B---------------------1---3---------------------------------------------
G-----------------------------------------------------------------------
D-----------------------------------------------------------------------
A-2h3-3-3-3---3-3-3-----------------------------------------------------
E-----------------------------------------------------------------------


Part 1

  G                               C
e-1-3-1-0---0-----------------------0---0-------------------------------
B---------3---3-1---0---0---------4---4---1-----1-----------------------
G-----------------3---3---0---0-2-----------2-0---2-0---------0---------
D-----------------------------------------------------2-0---------------
A---------------------------------------------------------3-------------
E-----------------------------------------------------------------------

  G                               C
e-----------------------------------------------------------------------
B-----------------------------------------------------------------------
G-------0---2-0---------0---2-0---------------0-----------0---0---------
D-0-2-3-----------0-2-3-----------------0-2-3-----------0---------------
A---------------------------------3-2-3-----------3-2-3-----------------
E-----------------------------------------------------------------------


20141109

SAILORS HORNPIPE TAB (FLATPICKING COVER BY SHANE BUMGARNER)

The original video title says: Flatpicking Sailors Hornpipe.
An old english tune played with two acoustic guitars.
See the TAB under the video.


SAILORS HORNPIPE TAB

PDF >>

Intro

e-----------------------------------------------------------------------
B-----------------------------------------------------------------------
G-----------------------------------------------------------------------
D-0-------0-------0-------0---------------------------------------------
A-3/5---5-5---5-5-5---5-5-5---------------------------------------------
E-----------------------------------------------------------------------


Guitar 1
      D                               E               A       
e-------------------------------2-0---0-----------0---------------------
B-3-2-3-------------------3-2-3-----3---------------3-2-0---------------
G-----------------2-0---2---------------------------------2-1-2---------
D---------0---0-4-----4-------------------2.--2-------------------------
A-----------------------------------------------------------------------
E-----------------------------------------------------------------------

      D       G       A       D       A               D
e-----------------------------------------------------------------------
B-0-2-3-2-0---0-------------------------------------------3.--3---------
G-----------2---2-0---0---------------------------0-------2.--2---------
D-------------------4---4-2-0-2-0-----------0-2-4---2-4---0.--0---------
A---------------------------------4-2-0-2-4-----------------------------
E-----------------------------------------------------------------------