Showing posts with label florian. Show all posts
Showing posts with label florian. Show all posts

20160906

JOE BONAMASSA SLOE GIN GUITAR SOLO TAB (COVER BY FLORIAN CASCIANO)


Florian Casciano plays a great cover of Joe Bonamassa - Sloe Gin guitar solo part.
See the TAB under the video.



JOE BONAMASSA SLOE GIN GUITAR SOLO TAB


e-----------------------------------------------------------------------
B-------------------------------3-----------3---3---3---3---3---3-------
G---2---------------------------0-----------0---0---0---0---0---0-------
D---2-------2---2---2---2---2---0-----------0---0---0---0---0---0-------
A---0-------0---0---0---0---0---x-----------x---x---x---x---x---x-------
E-------------------------------3-----------3---3---3---3---3---3-------


e-----------1p0-----------------------------3---------------------------
B---------3-----3p1---------1-p-0---------------0-0---------------------
G---2---2---------------0---------------0-------0-0-3-------5-----------
D---0---------------3-------------------------------3---3-3-5---5-5-----
A---------------------------------------------------1---1-1-3---3-3-----
E-----------------------------------3-----------------------------------


e-----------------------------------------------------------------------
B-------------------------------3---------------------------------------
G---2-------2-------2-----------0---------------------------------------
D---2---2---2---2---2---2---2---0---------------------------------------
A---0---0---0---0---0---0---0---x---------------------------------------
E-------------------------------3---------------------------------------