Showing posts with label free. Show all posts
Showing posts with label free. Show all posts

20161013

SLASH & MYLES KENNEDY BACK FROM CALI TAB (UNPLUGGED)

Slash & Myles Kennedy perform 'Back From Cali' with 2 acoustic guitars.
Great unplugged version, half-step down tuning.
Download the Guitar Pro Tab of the intro part.



SLASH & MYLES KENNEDY BACK FROM CALI TAB

GP5 + GP6 + PDF >>

Intro

eb-----------------------------------------------------------------------
Bb----------0-------3-0.--0.--0-----0-------x-------5\3.--3--------------
Gb---4------2h4.----4-4.--2.--4p2.--1~------x-------------2---2----------
Db---4------4-------4-----4.--4-----2~------x---4/6-6\4.--4--------------
Ab---2----------------------------------------------------------0.-------
Eb-----------------------------------------------------------------------


eb-----------------------------------------------------------------------
Bb----------0-------3-0.--0.--0-----0-------x-------5\3.--3--------------
Gb---4------2h4.----4-4.--2.--4p2.--1~------x-------------2---2----------
Db---4------4-------4-----4.--4-----2~------x---4/6-6\4.--4--------------
Ab---2----------------------------------------------------------0.-------
Eb-----------------------------------------------------------------------


eb-----------------------------------------------------------------------
Bb----------0-------3-0.--0.--0-----0-------x-------5\3.--3--------------
Gb---4------2h4.----4-4.--2.--4p2.--1~------x-------------2---2----------
Db---4------4-------4-----4.--4-----2~------x---4/6-6\4.--4--------------
Ab---2----------------------------------------------------------0.-------
Eb-----------------------------------------------------------------------

 

20161003

ELVIS PRESLEY LOVE ME TENDER TAB (FINGERSTYLE GUITAR COVER BY KYÖSTI RAUTIO)

Nice and easy fingerstyle guitar cover of Love Me Tender played by Kyösti Rautio.
Standard tuning!
Download the Guitar Pro Tab below.



LOVE ME TENDER FINGERSTYLE TAB

GP5 + GP6 + PDF >>

Part 1

e-------3-------3-------3-------3---------------------------------------
B-------3-------3-------3-------3---------------------------------------
G-------0-------0-------0-------0---------------------------------------
D-----------0---------------0-------------------------------------------
A-----------------------------------------------------------------------
E---3---------------3---------------------------------------------------


e-------3---2---3-/-5~------5~------3---2---0---2---3-----------3-------
B---3-------------------5-----------1-------1-----------3-------3-------
G-----------------------------------2-------2-----------0-------0-------
D-----------------------------------0-----------------------0-----------
A-----------2-------4-----------------------0---------------------------
E---3-----------------------5-----------------------3-------------------


e-------3---2---3-/-5~------5~------3---2---0---2---3-------3-----------
B---3-------------------5-----------1-------1---------3---3-------------
G-----------------------------------2-------2-----------0---------------
D-----------------------------------0-----------------------------------
A-----------2-------4-----------------------0---------------------------
E---3-----------------------5-----------------------3-------------------


20160929

JOHN MAYER SLOW DANCING IN A BURNING ROOM TAB (MAIN RIFF)

John Mayer plays the main riff of Slow Dancing In A Burning Room.
The original video title says: John Mayer Slow Dancing in a Burning Room "Two-Rock"
See the TAB under the video.


JOHN MAYER SLOW DANCING IN A BURNING ROOM TAB (MAIN RIFF)

GP5 + GP6 + PDF >>

e-----------------------------------------------------------------------
B---------------------x-------------------------------------------------
G--------9~-----------x-------8/9-----9\8~------------------------------
D---------------------x-------9/11---11\9~---11---9---------------------
A---9/11--------------x----------------------11---9---------------------
E-------------9-------------------------------------0-------------------


e-----------------------------------------------------------------------
B---5---------5.--5-----------------------------x-----------------------
G---4h6~------4.--4----------------9~-----------x-----------------------
D-----------------6-----------------------------x-----------------------
A-----------------------------9/11--------------x-----------------------
E---5-------------0-------0-------------9-------------------------------


e-----------------------------------------------------------------------
B-----------------------------------------------------------------------
G---8/9-----9\8~------------4-----4---------4---------------------------
D---9/11---11\9~---11---9---4h6---6p4---4---4---------------------------
A------------------11---9---4---------7-----7---------------------------
E-------------------------0---------------0-0---------------------------
                          x               x



20160920

JOHN CORABI HOOLIGAN'S HOLIDAY TAB (GUITAR SOLO)


There is an awesome acoustic guitar solo in Hooligan's Holiday by John Corabi.
It starts about 2:50 in the song, played in half-step down tuning.
See the TAB under the video.



JOHN CORABI HOOLIGAN'S HOLIDAY GUITAR SOLO TAB

GP5 + GP6 + PDF >>

 ~ 2:50

eb----------------------------------------------------------------------
Bb----------------------------------------------------------------------
Gb----------------------------------------------------------------------
Db------------------3~---5(7).--5(7)(5)p3--5-3~-------------------------
Ab--------------3-5----------------------5------------------------------
Eb---1-----1-3/5--------------------------------------------------------


eb----------------------------------------------------------------------
Bb------------6~----------6-\-------------------------------------------
Gb--------5-7-5~----------5-\-------------------------------------------
Db---3-5/7--------------------------------------------------------------
Ab----------------------------------------------------------------------
Eb----------------------------------------------------------------------


eb----------------------------------------------------------------------
Bb-----13(15)-----13.-12.-11.-10--------10-11-13------------------------
Gb-------------------------------12(13)----------12(14).--10~-----------
Db----------------------------------------------------------------------
Ab----------------------------------------------------------------------
Eb----------------------------------------------------------------------


20160804

THE ROLLING STONES I'M FREE TAB (GUITAR SOLO)


There is a little guitar solo in the legendary Rolling Stones song - I'm Free.
It starts about 1:10 in this video and sounds so cool ...
See the SOLO TAB under the video.



THE ROLLING STONES I'M FREE SOLO TAB

GP5 + GP6 + PDF >>

 ~ 1:10

e-----------------------------------------------------------------------
B-----------------------------------------------------------------------
G---0h2----2----0-----0--------------------0--2p0----0----0h2.----------
D------------------2-----2p0-----------0h2--------2---------------------
A----------------------------3------------------------------------------
E-----------------------------------------------------------------------


e-----------------------------------------------------------------------
B--------1-----1--------------------------------------------------------
G---0h2-----2--0---------0h2-p0--2p0----0----0h2------------------------
D------------------------------------2----------------------------------
A-----------------------------------------------------------------------
E-----------------------------------------------------------------------


e-----------------------------------------------------------------------
B-----------------------------------------------------------------------
G---0-----0---------------2p0----0--2p0------0--------------------------
D------2-----2-------2--------2---------2-------------------------------
A---------------3-------------------------------------------------------
E-----------------------------------------------------------------------


20160730

IVO CABRERA BLANK SPACE TAB (ELECTRIC GUITAR COVER OF TAYLOR SWIFT'S SONG)

Ivo Cabrera plays Blank Space by Taylor Swift.
Great instrumental guitar cover.
See the TAB under the video.



IVO CABRERA BLANK SPACE TAB

GP5 + GP6 + PDF >>

Part 1

e-----------------------------------------------------------------------
B-----------------------------------------------------------------------
G---------10-10.--10-10.--10-10.--10~----12/14--14-14.-12.-12.-10h12----
D-----------------------------------------------------------------------
A-----------------------------------------------------------------------
E-----------------------------------------------------------------------


e-----------------------------------------------------------------------
B-----------------------------------------------------------------------
G---------10-10.--10-10.--10-10.--10~----12/14--14-14.-12.-12.-10h12----
D---12------------------------------------------------------------------
A-----------------------------------------------------------------------
E-----------------------------------------------------------------------


e-----------------------------------------------------------------------
B-----------------------10--10-------------------------10--10-----------
G------10--10~-10---------------------10--10~-10------------------------
D---8------------10-10-------------8------------10-10-------------------
A-----------------------------------------------------------------------
E-----------------------------------------------------------------------


20150526

HANK MARVIN APACHE TAB (LIVE, 2000)


Hank Marvin (lead guitarist of the Shadows) playing Apache live in 2000.
His Fender Stratocaster still sounds brilliant.
See the TAB under the video.


HANK MARVIN APACHE TAB (LIVE)

GP5 + GP6 + PDF >>

Part 1

e-------------------------3/5-3-0-----------------------------3/5-3-0---
B-----1-3(4)(3)---------1-----------------1-3(4)(3)---------1-----------
G---2-----------------2-----------------2-----------------2-------------
D-----------------------------------------------------------------------
A-----------------------------------------------------------------------
E-----------------------------------------------------------------------



Part 2

e-----------------------------------------------------------------------
B-----------------------------------------------------------------------
G-----2-----------2-----------------------------------------------------
D---2---------2-------4-------2---0---2---------------------------------
A-----------------------------------------------------------------------
E-----------------------------------------------------------------------


e-----------------------------------------------------------------------
B-----------------------------------------------------------------------
G-------2-----------2---------------------------------------------------
D---2-----------2-------4-------2---0---2-------------------------------
A-----------------------------------------------------------------------
E-----------------------------------------------------------------------


20130624

INDONESIA RAYA TAB (WR SUPRATMAN LAGU KEBANGSAAN INDONESIA)

The Indonesian National Anthem played by Opik Bape with an acoustic guitar.
WR Supratman Lagu Kebangsaan Indonesia guitar solo.
See the TAB under the video.


INDONESIA RAYA GUITAR TAB

GP5 + GP6 + PDF >>

e---------------9---------9-7---7-5-------------------------------------
B---2---3-5-----------------------------5-------------------------------
G---2---4-6-----9---------9-7---7-6-----6-------------------------------
D-----------------------------------------------------------------------
A---------0-----------0-----------0-----------0-------------------------
E-------------------0-----------------------0---------------------------


e-----------------------------------------------------------------------
B---5---5-7-----5-----3-----2-----0-------------------------------------
G---6---6-7-----6-----4-----2-----1---------1---------------------------
D---------------------------------------2-------------------------------
A---------5-----4-----2-----0-----------------2-------------------------
E---------------------------------0-------------------------------------


e---------------7---------7---------------2-----------------------------
B---0-----------------------10---10-9.----------------------------------
G-------6-7-----7-------------------------2-----------------------------
D-----------------------------------------------------------------------
A---------------------------------------------2-2-----------------------
E---------7---------7-7-------------0-----------------------------------


20130517

LUTHER VANDROSS DANCE WITH MY FATHER TAB (INSTRUMENTAL COVER BY WANIIS)

Waniis J plays Luther Vandross - Dance With My Father with a single acoustic guitar.
Great fingerstyle arrangement. Standard tuning, CAPO on the 1st fret.
TAB helps below.


WANIIS DANCE WITH MY FATHER TAB

GP5 + GP6 + PDF >>

Capo on the 1st

Intro

e---9---10--12--12------10--9-------------------------------------------
B---10--------------10--10--10--12---------x--12------12--x-------------
G---9----------------------------------11--x--11--11------x-------------
D------------------------------------------x--------------x-------------
A---0-----------0-------------------11-----x--11----------x-------------
E-----------------------------------------------------------------------


e-------7--7h9---7-----------------------------7------------------------
B---10-------------------10--x--10---------10--------10-----------------
G--------------------9-------x---------9-----------------9--------------
D----------------------------x------0-----------------------------------
A---9------------9-----------x------------------------------------------
E-----------------------------------------------------------------------


e------------5--------5-------------------------------------------------
B---------7--7-----------7----------------------------------------------
G------7-----7-----7----------------------------------------------------
D---0-------------------------------------------------------------------
A-----------------------------------------------------------------------
E-----------------------------------------------------------------------


20130427

FREE ALRIGHT NOW SOLO TAB AND COVER


Great cover of Free - Alright Now guitar solo.
See the TAB under the video.



FREE ALRIGHT NOW SOLO TAB           

PDF >>

e-----------------------------------------------------------------------
B----13'------13'------13'------15.--13'--------------13'---------------
G-14-------14-------14-------14------------14.---14---------------------
D-----------------------------------------------------------------------
A-----------------------------------------------------------------------
E-----------------------------------------------------------------------


e-----------------------------------------------------------------------
B-15(17)------(15)p13-15~------13---------------------------------------
G---------------------------------14---14~---\--------------------------
D-----------------------------------------------------------------------
A-----------------------------------------------------------------------
E-----------------------------------------------------------------------


20121228

EXTREME MORE THAN WORDS TAB


Short lesson how to play Extreme - More Than Words with a single acoustic guitar.
The song is played in Half Step Down tuning. The main parts are shown in the video.
Download the GP5, GP6 and PDF files below.



EXTREME MORE THAN WORDS TAB

GP5 + GP6 + PDF >>

Intro

eb---------3---x---3-------3---x---3-------3---x-------3.--0---x--------
Bb---------3---x---3-------3---x---3-------3---x-------3.--3---x--------
Gb---------0---x---0-------0---x---0-------0---x-------0.--0---x--------
Db----------------------------------------------------------------------
Ab-----------------2-----------x---3-----------x---3.--3.--3---x--------
Eb-----3-------x--------------------------------------------------------


eb-0-------0---x-------3.--0---x---0-------0---x---2-------3---x--------
Bb-1-------1---x-------1.--1---x---1-------1---x---3-------3---x--------
Gb-0-------0---x-------0.--0---x---0-------0---x---2---2-------x--------
Db-------------------------------------------------0--------------------
Ab-0-----------x---0.--0.--0---x---3-----------x---------------x--------
Eb----------------------------------------------------------------------


eb-3-------3---x---3-------3---x---3-------3---x-------3.--0---x--------
Bb-3-------3---x---3-------3---x---3-------3---x-------3.--3---x--------
Gb-0-------0---x---0-------0---x---0-------0---x-------0.--0---x--------
Db----------------------------------------------------------------------
Ab-----------------2---------------3-----------x---3.--3.--3---x--------
Eb-3-----------x---------------x----------------------------------------