Showing posts with label gaku. Show all posts
Showing posts with label gaku. Show all posts

20170214

ZAKK WYLDE DARKEST HOUR TAB (GUITAR SOLO COVER BY GAKU)


Zakk Wylde - Darkest Hour guitar solo cover played by Gaku.
Download the GP6, GP5 and PDF files below.



ZAKK WYLDE DARKEST HOUR SOLO TAB

GP5 + GP6 + PDF >>

e--10-------9-------7---------------------------------------------------
B--------------------10-8-7-10-8-7--------------------------------------
G---------------------------------9-7-6-9-7-6---------------------------
D--------------------------------------------9-7-5-9-7-5------x-x-x-----
A-------------------------------------------------------9-7-5-x-x-x-----
E-----------------------------------------------------------------------
                    x x x x x  x xx x x x x xx x x x x xx x x 


e-----------------------------------------------------------------------
B--7----------------7---------------7--8--7--7--------------------------
G--9(11)(11)--------9(11)~~~-----------------9(11)------(11)(9)p7-9~~~\-
D-----------------------------------------------------------------------
A-----------------------------------------------------------------------
E-----------------------------------------------------------------------


e-----------------------------------------------------------------------
B--x-x-10(12)(10)(12)(10)(12)--(10)--12(14)(12)(14)(12)(14)--(12)-------
G--x-x------------------------------------------------------------------
D-----------------------------------------------------------------------
A-----------------------------------------------------------------------
E-----------------------------------------------------------------------