Showing posts with label gitar. Show all posts
Showing posts with label gitar. Show all posts

20150222

HANSEL PETHIG THE BOXER TAB (FINGERSTYLE GUITAR COVER)

Hansel Pethig plays a brilliant fingerstyle guitar cover of The Boxer (Paul Simon).
He is using standard tuning with Capo on the 2nd fret.
See the TAB under the video.



HANSEL PETHIG THE BOXER TAB

GP5 + GP6 + PDF >>

Part 1                     - CAPO on the 2nd -

e-----------------------------------------------------------------------
B-3p0---0-----0---------------------------------------------------------
G-----2---2-----2---0-----0-----0---------------------------------------
D-----------3-----3---3-----3-------------------------------------------
A-----------------------5-----5-----------------------------------------
E-----------------------------------------------------------------------


e-----------------------------------------------------------------------
B-----------0---------------0---------------0---------------0h1---------
G-------0-------0-------0-------0-------0---------------0---------------
D-----0-------0-------0-------0-------0-------0-------0-------0---------
A-----------------------------------------------------------------------
E-3-------3-------3-------3-------3-------3-------3-------3-------------


Part 2

e-----------0-----------------------------3---2---0-----0---2p0---------
B-3-----3-------3-----0-----0h1---3-------------------------------------
G-----------------------------------------------------------------------
D-----0-------0-------0-------0-------0-------0-------2-------2---------
A-----------------------------------------------------------------------
E-3-------3-------3-------3-------3-------2-------0-------0-------------


20150208

MIKE PINTO TEMPTATION TAB (LIVE AT THE MOBOOGIE LOFT)

Mike Pinto plays Temptation acoustically live at the MoBoogie.
Cool intro solo with some reggae chords.
See the TAB under the video.


MIKE PINTO TEMPTATION TAB

PDF >>

Intro

e-5-7-7-7-7.--7.--5-7-7-7--8-7.--5.--2-----------7-5--------------------
B-7-8-8-8-8.--8.--7-8-8-8-10-8.--7.--4---------------8-7-5-7-4.---------
G----------------------------------------------4------------------------
D-----------------------------------------------------------------------
A-----------------------------------------------------------------------
E-----------------------------------------------------------------------


e-5-7-7-7-7.--7.--5-7-7-7--8-7.--5.--2-----------2-2/3\2.--2---3.-------
B-7-8-8-8-8.--8.--7-8-8-8-10-8.--7.--4-----------4-4/5\4.--4---5.-------
G-----------------------------------------------------------------------
D-----------------------------------------------------------------------
A-----------------------------------------------------------------------
E-----------------------------------------------------------------------


e-5-7-7-7-7.--7.--5-7-7-7--8-7.--5.--2-----------7-5--------------------
B-7-8-8-8-8.--8.--7-8-8-8-10-8.--7.--4---------------8-7-5-7-4.---------
G----------------------------------------------4------------------------
D-----------------------------------------------------------------------
A-----------------------------------------------------------------------
E-----------------------------------------------------------------------


20150111

THE RYDERS SECRET LOVE TAB (LIVE IN TILBURG 2010)


The Ryders play a brilliant instrumental version of Secret Love live in Tilburg.
The lead guitarist is called Kurt Fröberg.
See the TAB of the lead guitar line and the chords here.



THE RYDERS SECRET LOVE TAB

PDF >>

Part 1

  A
e-----------------------------------------------------------------------
B-----------------------------------------------------------------------
G-----------------------------------------------------------------------
D-----2-2-----2-2-----2-2-----2-2-----2-2-----2-2-----2-2---------------
A-0---------------0---------------0---------------0---------------------
E---------0---------------0---------------0---------------0-------------
  x   x x x   x x x   x x x   x x x   x x x   x x x   x x x

  A
e-----------------------------------------------------------------------
B-----------------------------------------------------------------------
G-----------------------------------------------------------------------
D-1h2---1/2-----------0h2p0---------------------------------------------
A---------------------------4---0---2---4-------------------------------
E-------------------------------------------0---------------------------

  A                                   Bm     E
e-----------------------------------------------------------------------
B-----------------------------------------------------------------------
G-----------------------------------------------------------------------
D-------------------------0---2---4-------------------------------------
A-----0-----------2---4---------------2---------------------------------
E-0---------------------------------------------------------------------


20141225

SNOW SORA NO YURIKAGO TAB (GUITAR COVER BY ANIMELODIES1)

Animelodies1 plays a great fingerstyle guitar cover of Snow - Sora No Yurikago.
He uses Dropped D tuning with Capo on the 2nd fret.
A '0' in the tablature means the open string.
See the TAB under the video.


SNOW SORA NO YURIKAGO TAB

PDF >>

Part 1

e-----12---10---10---9~----------------9---7--------9~------------------
B---------------10-----------------------------10-----------------------
G-9-------------------------------------------------8~------------------
D-----------------------------------------------------------------------
A-----------------------------------------------------------------------
D-----------------------------------------------------------------------


e-----9---10-------7---5~------------------5---7---9---0----------------
B-6------------9---7-------------------7---------------8~---------------
G---------6-------------------------------------------------------------
D-----------------------------------------------------------------------
A-----------------------------------------------------------------------
D-----------------------------------------------------------------------


e---------5----------------------------------------------12-------------
B-----8-------8---7~----------------7---9-----10----12------------------
G-6---------------7~--------------------9-------------------------------
D-7------------------------------------------------------11-------------
A-----------------------------------------------------------------------
D-----------------------------------------------------------------------


20141214

THE BEAUMONT RAG TAB (FLATPICKING COVER BY SHANE BUMGARNER)

The original video title says: Flatpicking The Beaumont Rag.
Great song played with two acoustic guitars.
See the TAB under the video.


THE BEAUMONT RAG FLATPICKING TAB

PDF >>

Intro

e-----------------------------0-----------------------------------------
B---------------------1---3---------------------------------------------
G-----------------------------------------------------------------------
D-----------------------------------------------------------------------
A-2h3-3-3-3---3-3-3-----------------------------------------------------
E-----------------------------------------------------------------------


Part 1

  G                               C
e-1-3-1-0---0-----------------------0---0-------------------------------
B---------3---3-1---0---0---------4---4---1-----1-----------------------
G-----------------3---3---0---0-2-----------2-0---2-0---------0---------
D-----------------------------------------------------2-0---------------
A---------------------------------------------------------3-------------
E-----------------------------------------------------------------------

  G                               C
e-----------------------------------------------------------------------
B-----------------------------------------------------------------------
G-------0---2-0---------0---2-0---------------0-----------0---0---------
D-0-2-3-----------0-2-3-----------------0-2-3-----------0---------------
A---------------------------------3-2-3-----------3-2-3-----------------
E-----------------------------------------------------------------------


20141207

THE CHANTAYS CRYSTAL T TAB (COVER BY THE DUO-TONES)

The Duo Tones cover Crystal T from the band called The Chantays.
Great song from California beach. Attention! The TAB covers the original acoustic album version but the guys play it almost note-for-note.


THE CHANTAYS CRYSTAL T TAB

PDF >>

Intro

  Am                                  Dm
e-----------------------------------------------------------------------
B-----------------------------------------------------------------------
G-----------------------------------------------------------------------
D-------2--------------------------------3------------------------------
A-3-2-3-----0----------------------3-2-3-----0--------------------------
E-----------------------------------------------------------------------

    Am                Dm              E
e-----------------------------------------------------------------------
B-----------------------------------------------------------------------
G-----------------------------------------------------------------------
D-------2-------------3-----2h3p2-0-------------------------------------
A-3-2-3-------3---0-------------------2---------------------------------
E---------------------------------------0-----0-1-3-1-0-----------------

  Am                               Dm
e-----------------------------------------------------------------------
B-----------------------------------------------------------------------
G-----------------------------------------------------------------------
D-------2--------------------------------3------------------------------
A-3-2-3-----0----------------------3-2-3-----0--------------------------
E-----------------------------------------------------------------------


20141130

THE ROLLING STONES DEAD FLOWERS TAB (MAIN SOLO PART)

Brilliant Keith Richards guitar solo on the '71 album in the middle of Dead Flowers.
There are some cool lead parts throughout the whole song, the main solo is at 2:35.
The great thing is that Keith Richards only uses one pentatonic scale.
See the solo TAB under the video.


THE ROLLING STONES DEAD FLOWERS SOLO TAB

PDF >>

2:35
        D                       A             G                  D
e------------------7----------------------------------------------------
B--------------------10-----------------------10------------------------
G-----7-9(11)-----------(11)(9)-----------7------(11)(9)p7-9-7---7~-----
D-7h9---------------------------------7h9---9------------------9--------
A-----------------------------------------------------------------------
E-----------------------------------------------------------------------

                                      A
e---------10------------------------------------------------------------
B------------10(12)---10-8-10-------------------------------------------
G-----7-----------------------9(11)---7---7-7~--------------------------
D-7h9---9-------------------------------9-------------------------------
A-----------------------------------------------------------------------
E-----------------------------------------------------------------------

        G                      D
e-----------------------------------------------------------------------
B-------10--------------------------------------------------------------
G-----7----(11)(9)p7-9-7---7~-------------------------------------------
D-7h9--------------------9----------------------------------------------
A-----------------------------------------------------------------------
E-----------------------------------------------------------------------


20141124

TIESTO ADAGIO FOR STRINGS TAB (FINGERSTYLE COVER BY ROBERT HEDENBORG)

The original Adagio For Strings melody was written by Samuel Barber.
There is a great fingerstyle guitar arrangement played by Robert Hedenborg.
See the TAB under the video.



TIESTO ADAGIO FOR STRINGS TAB

PDF >>

Part 1

e-5-------5---4---5---7---4---5---7---5---7---8-------------------------
B-6-------5---5---5---5---5---5---5---5---5-----------------------------
G-----------------------------------------------------------------------
D-0---------------------------------------------------------------------
A-----------------------------------------------------------------------
E---------0---------------0---------------------------------------------


e------7---8----7----8----10--------------------------------------------
B-10-------10---10---10----------12-----------10------------------------
G-----------------------------------------------------------------------
D-----------------------------------------------------------------------
A-8--------8---------8-----------10-------------------------------------
E-----------------------------------------------------------------------


e-----------------------------------------------------------------------
B---------------------0-----------0-------0---1-------------------------
G-2-------2---1---2-------1---2-------2---------------------------------
D-----------------------------------------------------------------------
A-5---5-----------------------------------------------------------------
E---------0-------0---0---0---0---0---0---0---0-------------------------


20141118

DAVID WAYNE HOTEL CALIFORNIA TAB (ACOUSTIC GUITAR COVER)

David Wayne plays a cool live acoustic guitar cover of Hotel California (The Eagles).
He plays the song in the original key.
See the TAB under the video.



DAVID WAYNE HOTEL CALIFORNIA TAB

GP5 + GP6 + PDF >>

Intro

e-777---------------7-----------------6---------9p6---6-----------------
B-777---------7---------------------------7-----------------------------
G-777---7-------7-----------7---7h9---------6---------------------------
D-999-----9---------------9-------------------8-----8-------------------
A-999-------9-----9-----------------------------------------------------
E-777-------------------7-----------------------------------------------


e-5---5-----7p5---5-------------------------------7---------------------
B-5-----5-------------5---------------------7---------------------------
G-6---------------------6-----6-------7-------7-------------------------
D-7-------7-----7---------------0-------6-------------------------------
A-------------------------7-------7-------7-----7-----------------------
E-----------------------------------------------------------------------


e--7-7-7----------------7-------------------10--------------------------
B--8-8-8----------8---------8-----------------7---7---------7-------7---
G--7-7-7---7--------7---------7-----7.--------------7---------7-------7-
D--9-9-9-----9------------------7h9-----7-------7-----7-7---------------
A-101010-------10----10-----------------------------------------9-------
E-----------------------------------------------------------------------



20141109

SAILORS HORNPIPE TAB (FLATPICKING COVER BY SHANE BUMGARNER)

The original video title says: Flatpicking Sailors Hornpipe.
An old english tune played with two acoustic guitars.
See the TAB under the video.


SAILORS HORNPIPE TAB

PDF >>

Intro

e-----------------------------------------------------------------------
B-----------------------------------------------------------------------
G-----------------------------------------------------------------------
D-0-------0-------0-------0---------------------------------------------
A-3/5---5-5---5-5-5---5-5-5---------------------------------------------
E-----------------------------------------------------------------------


Guitar 1
      D                               E               A       
e-------------------------------2-0---0-----------0---------------------
B-3-2-3-------------------3-2-3-----3---------------3-2-0---------------
G-----------------2-0---2---------------------------------2-1-2---------
D---------0---0-4-----4-------------------2.--2-------------------------
A-----------------------------------------------------------------------
E-----------------------------------------------------------------------

      D       G       A       D       A               D
e-----------------------------------------------------------------------
B-0-2-3-2-0---0-------------------------------------------3.--3---------
G-----------2---2-0---0---------------------------0-------2.--2---------
D-------------------4---4-2-0-2-0-----------0-2-4---2-4---0.--0---------
A---------------------------------4-2-0-2-4-----------------------------
E-----------------------------------------------------------------------


20141102

AER ROOM TO BREATHE TAB

Aer - Room To Breathe is not a typical guitar song but starts with a brilliant lick that follows up throughout the whole song. 3 guitar lines can be heard: 1 with the main melody, a 2nd that only hits the background chord sometimes and a 3rd line later with melody 2.
See the TAB under the video.



AER ROOM TO BREATHE TAB

PDF >>

Main melody

e-----------------------------------------------------------------------
B------9h10p9--------------------------------------12.------------------
G-9h11----------11-9------------------9-11-11/13------------------------
D--------------------11-------------------------------------------------
A-----------------------------------------------------------------------
E-----------------------------------------------------------------------

(Background guitar)
e-----------------------------------------------------------------------
B----------(9)----------------------------------------------------------
G----------(9)----------------------------------------------------------
D----------(11)---------------------------------------------------------
A-----------------------------------------------------------------------
E-----------------------------------------------------------------------


e-----------------------------------------------------------------------
B-----------------------------------------------------------------------
G-9-11-11/13-------11---------------------------------------------------
D-----------------------------------------------------------------------
A-----------------------------------------------------------------------
E-----------------------------------------------------------------------


20141015

UNCHARTED 3 DRAKE'S DECEPTION TAB (GUITAR COVER BY ASTRAVEX)

AstraVex plays a lead guitar cover of the Uncharted 3 theme.
Use distortion and delay as much as you can.
See the TAB under the video.



UNCHARTED 3 DRAKE'S DECEPTION TAB

PDF >>

e-----------------------------------------------------------------------
B--------------10/12~-----10~---------10-8-10/12~------------\\\--------
G-9-11-12~--------------------------------------------------------------
D-----------------------------------------------------------------------
A-----------------------------------------------------------------------
E-----------------------------------------------------------------------


e-----------------------------------------------------------------------
B-12(13)--------------12---10---8---10/12-10~---------------------------
G-----------------------------------------------------------------------
D-----------------------------------------------------------------------
A-----------------------------------------------------------------------
E-----------------------------------------------------------------------


e-17-19-19(20)--------19---17---15---17/19-17~--------------------------
B---------------------------------------------------15~------17~--------
G-----------------------------------------------------------------------
D-----------------------------------------------------------------------
A-----------------------------------------------------------------------
E-----------------------------------------------------------------------

20141010

SUPERCELL KIMI NO SHIRANAI MONOGATARI TAB (FINGERSTYLE GUITAR COVER BY THE FIREBLITZ)

Nice fingerstyle guitar cover played by The Fireblitz.
The song is called Kimi No Shiranai Monogatari by Supercell.
TAB under the video.



SUPERCELL KIMI NO SHIRANAI MONOGATARI TAB

PDF >>

Part 1

e-0-0-0-0---0-0-0-0-0-------------0-0-0-0-0---0-0-----------------------
B-2-------------------3-2---0-----0-------0-------5-5-3-2---------------
G-2-----------------------------2-1-------1-----------------4-----------
D-2---------------0-----------------------------------------------------
A-0---------------------------------------------------------------------
E---------------------------------0---------------2-------2---0---------


e---------------------------------0-------4-------5---4---5---7---------
B---------2-------0-------3-------0---------------7---------------------
G-2-------------------2-----------1---1-----------7---------------------
D-----2-----------0-----------0-----------------------------------------
A-0-----------0---------------------------------------------------------
E---------------------------------0-----------0---0---------0-----------


Part 2

e-5-------0---------------0-----------------------------------5---------
B-3-----------3---2-----------3---2-------5---3---2---3---5-------------
G-2---2-----2---2-----1-----1---1-----2-----------------2---------------
D-0-----0---------------------------------------------------------------
A-------------------------------------------------0---------0-----------
E-----------------0-----0---------2-----2---2---2-----------------------


20141005

KENNY CHESNEY ANYTHING BUT MINE SOLO TAB

There is a brilliant lead guitar part at 3:16 in Anything But Mine by Kenny Chesney.
The solo has been transcribed according to the official album version.
See the TAB under the video.



KENNY CHESNEY ANYTHING BUT MINE SOLO TAB

GP5 + GP6 + PDF >>

e--------------------12------------------------9------------------------
B-12(14)----------------(14)---(12)p9------------12-9-------------------
G-------------------------------------11(13)----------(13)(11)p9~-----\-
D-----------------------------------------------------------------------
A-----------------------------------------------------------------------
E-----------------------------------------------------------------------


e-----------------------------------------------------------------------
B-----------------12h14p12----------------12----------------------------
G------9h11-11/13----------13\11p9-11(13)----(13)(11)~------------------
D-9h11------------------------------------------------------------------
A-----------------------------------------------------------------------
E-----------------------------------------------------------------------


e-----------------12-----------12-----------12-----------12-----------12
B--------------12-----------12-----------12-----------12-----------12---
G-/14-14(16)---------14(16)-------14(16)-------14(16)-------14(16)------
D-----------------------------------------------------------------------
A-----------------------------------------------------------------------
E-----------------------------------------------------------------------


20140929

NAGAOKA RYOSUKE PETROLZ TAB (FROM SLEEPERS FILM)

Nagaoka Ryosuke sings Petrolz from Sleepers film with a single acoustic guitar.
There is a great (however not note-for-note) cover that may help you too.
It is played in half-step down tuning.
See the TAB under the video.



NAGAOKA RYOSUKE PETROLZ TAB

GP5 + GP6 + PDF >>

Part 1

D#-----------4-----4-----4---4-----5-----5-------5---------5------------
A#-5-------x-5---x-5-----5-x-5---x-5-----5-x-x-x-5h7-5-----5---x-x------
F#-6-------x-6---x-6-----6-x-6---x-6-----6-x-x-x-------6---6---x-x------
C#-6-------x-6---x-6-----6-x-6---x-7-----7-x-x-x---------7-7---x-x------
G#-x-------x-----x-x-------x-----x-x-----x-x-x-x-----------x---x-x------
D#-5-----------x---5-----------x---7-----7-----------------7------------


D#-------4-------4-----------------------------------4---4---4----------
A#-4-----4-x-x-x-4-x-----------4-x-4-----4-x-x-x-5-x-4h5-4---4-----x----
F#-4-----4-x-x-x-4-x-----------4-x-4-----4-x-x-x-4-x-------6---6-4-x----
C#-4-----4-x-x-x-4-x-----4-----4-x-x-----x-x-x-x-x-x---------------x----
G#-x-------x-x-x---x-4h6---6-6---x-4-----4-x-x-x-4-x--------------------
D#-4--------------------------------------------------------------------


D#-4-----4-------4---4-4---5-7-5-x-5-----5-----5------------------------
A#-5-----5-x-x-x-5-x-5-5-x-5-5-5-x-5-----5-x-x-5h7-5---5---5---x-x------
F#-6-----6-x-x-x-6-x-6-6-x---------6-----6-x-x-----4h6-4---4---x-x------
C#-6-----6-x-x-x-6-x-6-6-x---------7-----7-x-x-----------7---7-x-x------
G#-x-----x-x-x-x-x-x-x-x-x---------x-----x-x-x-----------------x-x------
D#-5-----5-------5---5-5-----------7-----7------------------------------


20140921

MICHAEL LUCARELLI HIE FOLGET EIN WELSHER TANZ TAB (HANS NEUSIEDLER)

Michael Lucarelli plays his Loriente Cedar guitar now in Moab (Utah).
The song is called Hie Folget Ein Welsher Tanz by Hans Neusiedler.
Capo on the 1st fret, standard tuning.
See the TAB undet the video.


MICHAEL LUCARELLI HIE FOLGET EIN WELSHER TANZ TAB

PDF >>

Part 1

e-1-0-1-3-1-0-3-1-0-------0-3-1-0-1-0---------------------0---0---------
B-------------------------------------3-1---3-2-0-2-0-2-3-2---2---------
G-2-------2-------0---0-2-0-------2-------2-------2---------------------
D-0-------0---------4-------------0-------------------------------------
A-----------------3-------3---------------0-------0-------0-------------
E-----------------------------------------------------------------------


e-1-0-1-3-1-0-3-1-0-------0-3-1-0-1---0---------------------------------
B---------------------------------------3-2---3-2-3---3-2-3---3---------
G-2-------2-------0---0-2-0-------2-------2-------2-2-----2---2---------
D-0-------0---------4-------------0---------------0-------0-------------
A-----------------3-------3---------------0-----------------------------
E-----------------------------------------------------------------------


e-1-0-1-3-1-0-3-1-0-------0-3-1-0-1-0---------------------0---0---------
B-------------------------------------3-1---3-2-0-2-0-2-3-2---2---------
G-2-------2-------0---0-2-0-------2-------2-------2---------------------
D-0-------0---------4-------------0-------------------------------------
A-----------------3-------3---------------0-------0-------0-------------
E-----------------------------------------------------------------------


20140918

ONCE UPON A TIME IN MEXICO TAB (SPANISH GUITAR - EL MARIACHI)

The YouTube video title says: Once upon a time in Mexico - Spanish guitar.
You can hear 2 classical guitar lines at the same time. Nice melodies played in E minor.
See the TAB under the video.


ONCE UPON A TIME IN MEXICO TAB  (EL MARIACHI)

PDF >>

G1
e-----------------------------------------------------------------------
B-----------------------------------------------------------------------
G---------5-4-2-4-5---------------------4-4-4-2-2-2h4-------------------
D-----------------------------------------------------------------------
A-----------------------------------------------------------------------
E-----------------------------------------------------------------------

G2
e-----------------0-------3p2p0---0---------------0-------3-2-0---------
B-------------1-------------------------------0-------------------------
G---------2-----------2-------------------0-----------0-----------------
D-----2-------------------------------2---------------------------------
A-0---------------------------------------------------------------------
E---------------------------------0-------------------------------------


G1
e---------------------------------------0-0-2-3/5-7---------------------
B-----------------------------------------------------------------------
G------2-2--------4-----------------------------------------------------
D-----------------------------------------------------------------------
A-----------------------------------------------------------------------
E-----------------------------------------------------------------------


20140914

NICKEL CREEK 21ST OF MAY TAB


There is a nice country guitar intro played in 21st Of May by Nickel Creek.
The extreme part goes until 0:42. Capo on the 3rd fret, standard tuning.
See the TAB under the video.



NICKEL CREEK 21ST OF MAY TAB

GP5 + GP6 + PDF >>

Intro

e-3/5-3-----------------------------------------------------------------
B-------4\3-------------------------------------------------------------
G-----------------------------------------------------------------------
D-----------------------------------------------------------------------
A-----------------------------------------------------------------------
E-----------------------------------------------------------------------


e-----------------------------------------------------------------------
B-1-----1---------------------------------------0-1-------------1-------
G---2-0---2-0-----------------------------0-1-2---------------0---------
D-------------2-1-0-----------------0-1-2-----------------0h2-----------
A---------------------------0-1-2-3-------------------------------------
E-------------------0-1-2-3---------------------------------------------


e-------0-------0-------------------------------------------------------
B-----1-------1---------0-------0-----1---------1-------1-----1---------
G-0h2-----2p0---------0-------0-------0-------0-------0-------0---------
D-----------------0h2-----1p0---------2-----2-------2-----0h2-----------
A---------------------------------3---------------3---------------------
E-----------------------------------------3-----------------------------


20140831

MINAMI SPARKING SLASH TAB (COVER BY STEINBERCO)


Time to start rocking now ...
Sparking Slash guitar cover played by Steinberco.
See TAB of the lead part under the video.



MINAMI SPARKING SLASH TAB

PDF >>

Part 1

e-------------------------------------2---------------/2----------------
B-2----------------------------2------2-2----------------5-2------------
G-4(6)-------------------------4(6)-----4(6)-----------------5-4-2~-----
D-----------------------------------------------------------------------
A-----------------------------------------------------------------------
E-----------------------------------------------------------------------
                                                         x x x x

e-----------------------------------------------------------------------
B--------------------------------------------------2-4---4(6)---4-2-----
G-----4(6)---4(6)(4)p2-4-2~--------------------2-4------------------6~--
D-4--------------------------4---4~--------2-4--------------------------
A----------------------------------------4------------------------------
E-----------------------------------------------------------------------
                                           x x x x x

e-----------------------------------------------------------------------
B-12(14)------------12(14)---12-10-12-10-\------------------------------
G-----------------------------------------------------------------------
D-----------------------------------------------------------------------
A-----------------------------------------------------------------------
E-----------------------------------------------------------------------


20140828

BENISE SANTA BARBARA TAB


Benise - Santa Barbara - cool spanish guitar music.
See the TAB under the video.



BENISE SANTA BARBARA TAB

PDF >>

 Verse 1
 
  F#m                Bm
e-----------------------------------------------------------------------
B-----------------------------------------------------------------------
G-----------------------------------------------------------------------
D-----------------------------------------------------------------------
A-----------------------------------------------------------------------
E-----------------------------------------------------------------------

              E                                 A
e-----------------------------------------------------------------------
B-----------------------------------------------------------------------
G-----1-2-4---4/6-------------7---6.--4h6p4---2-2-----------------------
D-2/4-------------------------------------------------------------------
A-----------------------------------------------------------------------
E-----------------------------------------------------------------------

  E/G#                    F#m                 Bm
e-----------------------------------------------------------------------
B-3/5-3-3-----2---3-2h3p2-----------------------------------------------
G---------------------------4-2-----------------2---4---4/6-4-----------
D-----------------------------------------2---4-------------------------
A-------------------------------------2/4-------------------------------
E-----------------------------------------------------------------------