Showing posts with label gitarra. Show all posts
Showing posts with label gitarra. Show all posts

20161201

DOROTHY AFTER MIDNIGHT TAB (LIVE IN AUSTIN, 2015 #JAMINTHEVAN)


Live performance of Dorothy - After Midnight. Powerful song !!!
Standard tuning. Have fun :)



DOROTHY AFTER MIDNIGHT TAB

PDF >>


e-----------------------------------------------------------------------
B-----------------------------------------------------------------------
G---6-4~----------------------------------------------------------------
D-----------4-2'--------------------------------------------------------
A-----------------------------------------------------------------------
E-----------------------------------------------------------------------


Verse

e-----------------------------------------------------------------------
B-----------------------------------------------------------------------
G-----------------------------------------------------------------------
D---6-6.--6-------\------------------6-6.--6-------\--------------------
A---4-4.--4-------\------------------4-4.--4-------\--------------------
E---4-4.--4-------\------------------4-4.--4-------\--------------------


e-----------------------------------------------------------------------
B-----------------------------------------------------------------------
G----------------------------------------------------6-4~---------------
D---6-6.--6-------\------------------4-4-----4---4-4---------4-2'-------
A---4-4.--4-------\------------------2-2-----2---2-2--------------------
E---4-4.--4-------\------------------2-2-----2---2-2--------------------


20161117

SAILOR'S HORNPIPE TAB (TENOR GUITAR COVER BY DAVID HANSEN)

David Hansen plays Sailor's Hornpipe on his tenor guitar.
The tuning is GDAE (from the lower to the higher string)
See the TAB below.




SAILOR'S HORNPIPE TAB

GP5 + GP6 + PDF >>

E---3--2-3.--------------------3.--3---2--3-----------------------------
A--------------------5--3-2--5------------------------------------------
D------------5.--5.-----------------------------------------------------
G-----------------------------------------------------------------------


E---5.----------5--3-2.----------0--2-----------------------------------
A-------0---0------------5.--5------------------------------------------
D-----------------------------------------------------------------------
G-----------------------------------------------------------------------


E---3--2-0----0---------------------------------------------------------
A-----------5----5-3--2-3--2-0----0-------------------------------------
D-------------------------------5----5-4--2-----------------------------
G-----------------------------------------------------------------------


E-----------------------------------3--2--------------------------------
A-----------0----2-0--3-2-----------------------------------------------
D---0--5-4----5-------------5.--5.--------------------------------------
G-----------------------------------------------------------------------


20161030

EMMA'S LULLABY TAB (KENZIE NIMMO & HARRIS HELLER ORIGINAL ONE-TAKE)

Kenzie Nimmo & Harris Heller sing Emma's Lullaby.
Standard tuning with Capo on the 3rd fret.
See the TAB under the video.



KENZIE NIMMO & HARRIS HELLER EMMA'S LULLABY TAB

GP5 + GP6 + PDF >>

Intro                        CAPO on the 3rd

e-----------------------------------------------------------------------
B-------3-----3---------3-----3-----------------------------------------
G-----0-----0-----0---0-----0-----0-------------------------------------
D-----------------------------------------------------------------------
A---3-----3-----3---3-----3-----3---------------------------------------
E-----------------------------------------------------------------------


Verse

e-----------------------------------------------------------------------
B-------3-----3---------3-----3---------3-----3---------3-----3---------
G-----0-----0-----0---0-----0-----0---0-----0-----0---2-----2-----0-----
D-----------------------------------------------------------------------
A---3-----3-----3---3-----3-----3---------------------------------------
E-----------------------------------3-----3-----3---2-----2-----2-------


e-----------------------------------------------------------------------
B-------3-----3---------3-----3---------3-----3---------3-----3---------
G-----0-----0-----0---2-----2-----0---0-----0-----0---0-----0-----0-----
D-----------------------------------------------------------------------
A-----------------------------------3-----3-----3---3-----3-----3-------
E---0-----0-----0---2-----2-----2---------------------------------------


20161020

BOB DYLAN BOOTS OF SPANISH LEATHER TAB (COVER BY FLORBIN)

Great cover by Florbin, he sings Bob Dylan's Boots of Spanish Leather.
Standard tuning + CAPO on the 3rd fret.
See the TAB under the video.


BOB DYLAN BOOTS OF SPANISH LEATHER TAB

GP5 + GP6 + PDF >>

Intro                        CAPO on the 3rd

e-------------------0---------------------------------------------------
B-------------3-----------3---------1---------1-----0---------0---------
G---------0-------------------0-----------0---------------0-------------
D-------4-------4-------4-------4-------0-------0-------0-------0-------
A-----------------------------------------------------------------------
E---0-------0-------0-------0-------2-------2-------3-------3-----------


e-----------------------------------------------------------------------
B---1---------1-----0---------0-----0---------0-------------------------
G---------0---------------0---------------0-----------------------------
D-------2-------2-------0-------0-------0-------0-----------------------
A-----------------------------------------------------------------------
E---3-------3-------3-------3-------3-------3---------------------------


e-----------------------------------------------------------------------
B---3---------3-----1---------1-----0---------0-----0---------0---------
G---------0---------------0---------------0---------------0-------------
D-------4-------4-------0-------0-------0-------0-------0-------2/9-----
A-----------------------------------------------------------------------
E---0-------0-------2-------2-------3-------3-------3-------3-----------


20161017

RUCY THE BRIDE AND GROOM TAB (MAIN RIFF)


Rucy plays his original song 'The Bride And Groom' Brilliant lead guitar song.
See the TAB under the video.



RUCY THE BRIDE AND GROOM TAB

GP5 + GP6 + PDF >>

Part 1

e------11---10----------------------15----13-11\-----11----h13.---------
B-------------11\-/8h11~---/13\------------------/13--------------------
G---/8----8---------------------/12----12-------------------------------
D-----------------------------------------------------------------------
A-----------------------------------------------------------------------
E-----------------------------------------------------------------------


e-----------------------------------------------------------------------
B---11(13)---(11)~----------11(13)(11)-9-8------------------------------
G---x-----------------------x--------------11\10p8----------------------
D-----------------------------------------------------------------------
A-----------------------------------------------------------------------
E-----------------------------------------------------------------------


e--------10-------10-10h12~----------\----------------------------------
B-----------------------------------------------------------------------
G---9h10----10/12-------------------------------------------------------
D-----------------------------------------------------------------------
A-----------------------------------------------------------------------
E-----------------------------------------------------------------------


20161008

ELTON JOHN CAN YOU FEEL THE LOVE TONIGHT TAB (INSTRUMENTAL GUITAR COVER BY STEPHEN PETERS)

Great instrumental guitar cover of Can You Feel The Love Tonight by Stephen Peters.
Attention: 1 step down tuning (so DGCFAD)
See the TAB under the video.



CAN YOU FEEL THE LOVE TONIGHT TAB (INSTRUMENTAL)

PDF >>

GP5 + GP6 >>

Part 1

D-----------------------------------------------------------------------
A-----------------------------------------------------------------------
F--------4-5---5/7\5--------------------4-5---5/7--\5~------------------
C------7---------------5-5~-----------7---------------------------------
G-----------------------------------------------------------------------
D-----------------------------------------------------------------------


D-----------------------------------------------------------------------
A-------------------6-----5h6p5-------6~-----5h6p5----------------------
F-------4-5---------------------7---5--------------7---5-7~-------------
C---7-------------5-----------------------------------------------------
G-----------------------------------------------------------------------
D-----------------------------------------------------------------------


D-----------------------------------------------------------------------
A-----------------------------------------------------------------------
F-------------------4-5---5/7-5-----------------------------------------
C---5\3\2---------7---------------5-5~----------------------------------
G---------3\2----------------------------5h7p5\3------------------------
D-------------1.-----------------------------------1--------------------



20161003

ELVIS PRESLEY LOVE ME TENDER TAB (FINGERSTYLE GUITAR COVER BY KYÖSTI RAUTIO)

Nice and easy fingerstyle guitar cover of Love Me Tender played by Kyösti Rautio.
Standard tuning!
Download the Guitar Pro Tab below.



LOVE ME TENDER FINGERSTYLE TAB

GP5 + GP6 + PDF >>

Part 1

e-------3-------3-------3-------3---------------------------------------
B-------3-------3-------3-------3---------------------------------------
G-------0-------0-------0-------0---------------------------------------
D-----------0---------------0-------------------------------------------
A-----------------------------------------------------------------------
E---3---------------3---------------------------------------------------


e-------3---2---3-/-5~------5~------3---2---0---2---3-----------3-------
B---3-------------------5-----------1-------1-----------3-------3-------
G-----------------------------------2-------2-----------0-------0-------
D-----------------------------------0-----------------------0-----------
A-----------2-------4-----------------------0---------------------------
E---3-----------------------5-----------------------3-------------------


e-------3---2---3-/-5~------5~------3---2---0---2---3-------3-----------
B---3-------------------5-----------1-------1---------3---3-------------
G-----------------------------------2-------2-----------0---------------
D-----------------------------------0-----------------------------------
A-----------2-------4-----------------------0---------------------------
E---3-----------------------5-----------------------3-------------------


20160925

FUNTWO IT'S OK TAB (FUNTWO'S ORIGINAL SONG)


Funtwo's original song called It's OK - a song written to encourage you on harder days.
Download the GP5, GP6 and PDF files below.



FUNTWO IT'S OK TAB

PDF >>

GP5 + GP6 >>

e-------2---x------------------------------2---x------------------------
B-------3---x-2.-2.-2.-3-------------------3---x-2.-2.-2.-0-------------
G-------------2.-2.-2.-2-------------------------2.-2.-2.-0-------------
D---0-------x--------------------------0-------x------------------------
A-----------------------------------------------------------------------
E-------------2.-2.-2.-3-------------------------2.-2.-2.-3-------------


e-----------------------------------------------------------------------
B-----------------------------------------------------------------------
G---7---7~--p6----------------------------------------------------------
D--------------7----7h9~-----p7-7---------------------------------------
A----------------9.-----------------------------------------------------
E-----------------------------------------------------------------------


e-----------------------------------------------------------------------
B-----------------------------------------------------------------------
G-----------4-4------------7/9\7.-6~------------------------------------
D---5\4/5h7-----7.-5\4/5---------------7--------------------------------
A-----------------------------------------------------------------------
E-----------------------------------------------------------------------


20160920

JOHN CORABI HOOLIGAN'S HOLIDAY TAB (GUITAR SOLO)


There is an awesome acoustic guitar solo in Hooligan's Holiday by John Corabi.
It starts about 2:50 in the song, played in half-step down tuning.
See the TAB under the video.



JOHN CORABI HOOLIGAN'S HOLIDAY GUITAR SOLO TAB

GP5 + GP6 + PDF >>

 ~ 2:50

eb----------------------------------------------------------------------
Bb----------------------------------------------------------------------
Gb----------------------------------------------------------------------
Db------------------3~---5(7).--5(7)(5)p3--5-3~-------------------------
Ab--------------3-5----------------------5------------------------------
Eb---1-----1-3/5--------------------------------------------------------


eb----------------------------------------------------------------------
Bb------------6~----------6-\-------------------------------------------
Gb--------5-7-5~----------5-\-------------------------------------------
Db---3-5/7--------------------------------------------------------------
Ab----------------------------------------------------------------------
Eb----------------------------------------------------------------------


eb----------------------------------------------------------------------
Bb-----13(15)-----13.-12.-11.-10--------10-11-13------------------------
Gb-------------------------------12(13)----------12(14).--10~-----------
Db----------------------------------------------------------------------
Ab----------------------------------------------------------------------
Eb----------------------------------------------------------------------


20160917

LA FUGA EN VELA TAB (GUITAR SOLO)

Great guitar solo in La Fuga - En Vela around 1:50 till around 2:20.
The solo is in F# minor played in standard tuning.
See the TAB under the video.



LA FUGA EN VELA SOLO TAB

GP5 + GP6 + PDF >>

(1:54 - 2:22)

e-----------------------------------------------------------------------
B-----------------------------------------------------------------------
G---/14----14~-------------16(18).--14~---------------------------------
D-------16--------------------------------------------------------------
A-----------------------------------------------------------------------
E-----------------------------------------------------------------------


e-----------------------------------------------------------------------
B--17(19)---17-14-17-14h17p14--14---------------------------------------
G----------------------------16--16(18)(16)p14--14-16(18)(16)p14-16-16\-
D---------------------------------------------16------------------------
A-----------------------------------------------------------------------
E-----------------------------------------------------------------------


e----------------------------------------------17(19)---17~-------------
B--------------------------------17(19).--17.---------------------------
G---------14~-------16(18).--14-----------------------------------------
D---/14h16--------------------------------------------------------------
A-----------------------------------------------------------------------
E-----------------------------------------------------------------------


20160912

HANSEL PETHIG MAD WORLD TAB (FINGERSTYLE GUITAR COVER OF GARY JULES'S SONG)

Brilliant fingerstyle guitar cover of Mad World (Gary Jules) played by Hansel Pethig.
Dropped D tuning with CAPO on the 8th fret.
Download the Guitar Pro Tab below.



HANSEL PETHIG MAD WORLD TAB

PDF >>

Part 1

e------0----------------------------------------------------------------
B---1-----0--1-----0-----------------------------1----------------------
G---------------2-----0-------------------------------------------------
D---------2-----------2--4-----------2-----0----------------------------
A---0-----------0-----------------0-----------0-------------------------
D---------------------------0-----------0-------------------------------


e------0----------------------------------------------------------------
B---------0--1-----0--1--3----------------------------------------------
G---------------2--------0-----------0----------------------------------
D---------2-----------2-----------2-----4--2--0-------------------------
A---0-----------0--------------0-----------------3----------------------
D---------------------------0-------------------------------------------


e------0----------------------------------------------------------------
B---1-----0--1-----0-----------------------------1----------------------
G---------------2-----0-------------------------------------------------
D---------2-----------2--4-----------2-----0----------------------------
A---0-----------0-----------------0-----------0-------------------------
D---------------------------0-----------0-------------------------------



20160906

JOE BONAMASSA SLOE GIN GUITAR SOLO TAB (COVER BY FLORIAN CASCIANO)


Florian Casciano plays a great cover of Joe Bonamassa - Sloe Gin guitar solo part.
See the TAB under the video.



JOE BONAMASSA SLOE GIN GUITAR SOLO TAB


e-----------------------------------------------------------------------
B-------------------------------3-----------3---3---3---3---3---3-------
G---2---------------------------0-----------0---0---0---0---0---0-------
D---2-------2---2---2---2---2---0-----------0---0---0---0---0---0-------
A---0-------0---0---0---0---0---x-----------x---x---x---x---x---x-------
E-------------------------------3-----------3---3---3---3---3---3-------


e-----------1p0-----------------------------3---------------------------
B---------3-----3p1---------1-p-0---------------0-0---------------------
G---2---2---------------0---------------0-------0-0-3-------5-----------
D---0---------------3-------------------------------3---3-3-5---5-5-----
A---------------------------------------------------1---1-1-3---3-3-----
E-----------------------------------3-----------------------------------


e-----------------------------------------------------------------------
B-------------------------------3---------------------------------------
G---2-------2-------2-----------0---------------------------------------
D---2---2---2---2---2---2---2---0---------------------------------------
A---0---0---0---0---0---0---0---x---------------------------------------
E-------------------------------3---------------------------------------


20160901

ERIC TINGSTAD DANZA MORA TAB (LEAD GUITAR LINE, GUITAR PRO)

Eric Tingstad - Danza Mora, great instrumental guitar song.
Sometimes there are 2 lead guitar lines in the song.
See the TAB under the video.



ERIC TINGSTAD DANZA MORA TAB

PDF >>

Part 1

e--------------------5-----------------------6---5~---------------------
B---------------5h6h8-----8----6---5----8-------------------------------
G---7~------------------------------------------------------------------
D-----------------------------------------------------------------------
A-----------------------------------------------------------------------
E-----------------------------------------------------------------------


e---6---p5--------------------------------------------------------------
B-------------8---8~-----------------------6---5~-----------------------
G--------------------------------6---h7---------------------------------
D-----------------------------------------------------------------------
A-----------------------------------------------------------------------
E-----------------------------------------------------------------------


e--------5~---------6--p5~-------------10~----------9h10p9--------------
B---5h6h8-------------------------------------------------10~-----------
G-----------------------------------------------------------------------
D-----------------------------------------------------------------------
A-----------------------------------------------------------------------
E-----------------------------------------------------------------------



20160710

THE ANIMALS BOOM BOOM TAB (INTRO + VERSE)

The Animals play a great version of John Lee Hooker's  Boom Boom.
Use a CAPO on the 1st fret to get the original key of the song.
See the TAB of the intro and the verse part under the video.



THE ANIMALS BOOM BOOM TAB

PDF >>

Intro

e-----------------------------------------------------------------------
B--------3--------------------------------------------------------------
G---3/4----2--0--------------------------0--3-2--0----------------------
D---------------2--0-2-----------------2-----------2--0-2---------------
A-----------------------------------------------------------------------
E-----------------------------------------------------------------------


e-----------------------------------------------------------------------
B--------3--------------------------------------------------------------
G---3/4----2--0--------------------------0--3-2--0----------------------
D---------------2----------------------2-----------2--0-2---------------
A------------------2-0--------------------------------------------------
E-----------------------------------------------------------------------


e-----------------------------------------------------------------------
B--------3--------------------------------------------------------------
G---3/4----2--0-----4-------------------------0---0---------------------
D---------------2------------------------0--2---------2-----------------
A--------------------------------------2--------------------------------
E-----------------------------------------------------------------------



20160416

SPANISH EYES TAB (INSTRUMENTAL GUITAR COVER BY STRATPETER)

Stratpeter plays a very nice instrumental guitar cover of Spanish Eyes.
See the TAB under the video.



STRATPETER SPANISH EYES TAB

PDF >>

Part 1

        D7
e-----------------------------------------------------------------------
B-----------------------------------------------------------------------
G-----------------------------------------------------------------------
D-----4-4-4-4-4-4-4-4.--------------------------------------------------
A-----5-5-5-5-5-5-5-5.--------------------------------------------------
E-----------------------------------------------------------------------

   G
e-----------------------------------------------------------------------
B-----------------------------------------------------------------------
G-----------------------------------------------------------------------
D-----------------------------------------------------------------------
A---2-------2---------------2-2---3-5~----------------------------------
E-----------------------------------------------------------------------

                                    D7
e-----------------------------------------------------------------------
B-----------------------------------------------------------------------
G---------------------------2---4/5-5~----------------------------------
D---------------2---4/5-5-----------------------------------------------
A---2-2---3-5-----------------------------------------------------------
E-----------------------------------------------------------------------



20160304

JOHANNES LINSTEAD ELENI TAB (GUITAR PRO)

Johannes Linstead plays a relaxing guitar song called Eleni.
Very nice nylon guitar solo.
See the TAB under the video.



JOHANNES LINSTEAD ELENI TAB

PDF >>

GP5 + GP6 >>

Intro

G1
e------<12>----------------------------------------------------<12>-----
B-<12>------------------------------------------------------------------
G-----------------------------------------------------------------------
D-----------------------------------------------------------------------
A-----------------------------------------------------------------------
E-----------------------------------------------------------------------

G2
e---------------2p0-----------------------------------------------------
B-------------0-----0---------------------------------------------------
G-----------0---------------0-------------------0---------------0-------
D---------2---------------------------------2---------------4-------4---
A-----------------------------------0-2-3-----------5-------------------
E-------0---------------------------------------------------------------


G1
e-----------------------------------------------------------------------
B---<12>------------------------------------<7>-------------------<12>--
G--------------------------------------<5>------------------------------
D------------------------------------------------<5>--------------------
A-----------------------------------------------------------------------
E-----------------------------------------------------------------------

G2
e-----------2p0---------------------------------------------------------
B---------0-----0-------------------------1p0---------------------------
G-------0---------------0---------------0-----0-------------<7>---------
D-----2-------------------------------2---------0-----------<7>---------
A-------------------------------0-2-3-----------------------------------
E---0-------------------------------------------------------------------


20151227

BURNS ERNST SPANISH HARLEM TAB

Burns Ernst plays Spanish Harlem with a nice Fender Stratocaster.
Nice instrumental guitar cover.
See the TAB under the video.



BURNS ERNST SPANISH HARLEM TAB

PDF >>

Part 1

e-----------------------------------------------------------------------
B-----------------------------------------------------------------------
G-----------------------4---6---4h6p4-----------------------------------
D---4---4---5-5/7---7-----------------7~--------------------------------
A-----------------------------------------------------------------------
E-----------------------------------------------------------------------


e-----------------------------------------------------------------------
B-----------------------------------------------------------------------
G-----------------------4---6---4h6p4-----------------------------------
D---4---4---5-5/7---7-----------------7~--------------------------------
A-----------------------------------------------------------------------
E-----------------------------------------------------------------------


e-----------------------------------------------------------------------
B-----5-----------5---------5-----5-------------------------------------
G---------7---4-----7---4-----7-4---7---4-------------------------------
D-----------------------------------------------------------------------
A-----------------------------------------------------------------------
E-----------------------------------------------------------------------


20151221

BOYCE AVENUE GOD MUST HAVE SPENT TAB (ORIGINAL SONG BY N'SYNC)

God Must Have Spent (N'SYNC) played by Boyce Avenue.
Great acoustic cover. Standard tuning, CAPO on the 2nd.
See the TAB under the video.



BOYCE AVENUE GOD MUST HAVE SPENT TAB

GP5 + GP6 + PDF >>

Intro

e-----------------------------------------------------------------------
B-----------------------------------------------------------------------
G---0--h2.--2h4-0-----------0---------------0---0-----------------------
D---0-----------2-------2-----------4-----------0-----------------------
A---------------3-------------------5-----------------------------------
E---3-------------------------------5-----------3-----------------------


e-----------------------------------------------------------------------
B-----------------------------------------------------------------------
G---0--h2.--2h4-0-----------0---------------0---0-----------------------
D---0-----------2-------2-----------4-----------0-----------0h2---------
A---------------3-------------------5-----------------------------------
E---3-------------------------------5-----------3-----------------------


e-----------------------------------------------------------------------
B-------------------------------------------3---0-----------------------
G---0--h2.--2h4-0-----------0-------4---5.--------------0---------------
D---0-----------2-------2-----------0-----------------------2-----------
A---------------3-------------------0---------------------------2-------
E---3-------------------------------------------0-----------------------


20151212

HANSEL PETHIG REDEMPTION SONG TAB (FINGERSTYLE COVER OF BOB MARLEY SONG)

Hansel Pethig plays a fingerstyle guitar cover of Bob Marley's Redemption Song.
He is using standard tuning with CAPO on the 3rd fret.
See the TAB under the video.



HANSEL PETHIG REDEMPTION SONG TAB

PDF >>

Part 1

e-----------------------------------------------------------------------
B-----------------------------------------------------------------------
G-----------------------------------------------------------------------
D-----------------------2---0-------------------0-----------------------
A---------0-2-------3-----------2---------0-2-------3-2-0---------------
E---3-----------3.------------------3-----------------------3-----------


e-----------------------------------------------------------------------
B-----------------------------------------------------------------------
G-----------------------------------------------0-----------------------
D-----------------------2---0-------0-----------0-------0---0-----------
A---------0-2-------3---------3-2-0-2-----0-2-------3-2-0---2-----------
E---3-----------3.------------------3-----------------------3-----------


Part 2

e-----------------------------------------3-----------------------------
B---0-3/5-3-------1-0-1---3-----------3/5-------------------------------
G---------------------------------2---2/4-------------------------------
D---------------0-------0-------0---------------------------------------
A-----------------------------------------------------------------------
E-----------3-------3-------2-------2-----------------------------------



20151205

JASON MRAZ FLY ME TO THE MOON TAB (ACOUSTIC VERSION)

Jason Mraz plays Fly Me To The Moon with a Venezuelan cuatro.
The tuning is the same as the 4 higher strings on a normal guitar - so DGBE.
See the TAB under the video.


JASON MRAZ FLY ME TO THE MOON TAB (ACOUSTIC VERSION)

PDF >>

Chords


    Am        Dm        G       C maj7       F          F6

e---5---------5---------3---------3----------1----------1---------------
B---5---------6---------3---------5----------1----------3---------------
G---5---------7---------4---------4----------2----------2---------------
D---7---------7---------5---------5----------3----------3---------------

   
    E7        A7        E

e---7---------5---------12----------------------------------------------
B---5---------5---------9-----------------------------------------------
G---7---------6---------9-----------------------------------------------
D---6---------5---------9-----------------------------------------------



Am            Dm
Fly me to the moon

           G              C maj7
And let me play among the stars

     F                 F6
And let me know what spring is like

 E7              Am
On Jupiter and Mars