Showing posts with label gp6. Show all posts
Showing posts with label gp6. Show all posts

20170325

BURNS ERNST BLUEING TAB


Burns Ernst plays an instrumental guitar cover of Blueing.
The original song was composed and played by Matti Luhtala.
Download the Guitar Pro 6 and PDF files below.



BURNS ERNST BLUEING TAB

GP6 + PDF >>

Intro

e-----------------------------------------------------------------------
B-----------------3---------------3-------------------------------------
G---4---------2-4---4~--------2-4---4~--------2-4-2---------------------
D---------------------------------------------------2-------------------
A-----------------------------------------------------------------------
E-----------------------------------------------------------------------


Verse

e-------------/7--7--7--5.-----3-------2h3-2----------------------------
B------0---1----------------5----------------3---------3----------------
G--2-------------------------------------------4~---------4.------------
D------------------------------------------------------------4--2~------
A-----------------------------------------------------------------------
E-----------------------------------------------------------------------


e--------------------------------------------------------3--2-----------
B--------------------------------------------------------------3--0-----
G-----------------------------------------------------------------------
D---------------5--5--5--5--5/7--4-------4h5-4-0------------------------
A--0---2---2h3-----------------------------------2----------------------
E-----------------------------------------------------------------------


20170320

WILLIE NELSON O'ER THE WAVES TAB (RED HEADED STRANGER 1975)


Willie Nelson - O'er The Waves from the album Red Headed Stranger (1975)
Download the Guitar Pro 6, GP5 and PDF files below.



WILLIE NELSON O'ER THE WAVES TAB

PDF >>

e-------------------------------3---------------------------------------
B---3-----------------------3---0---------------------------------------
G-----5-4-----------3---4---0---0---------------------------------------
D---------------------------0-------------------------------------------
A-----------------------------------------------------------------------
E-----------------------------------------------------------------------


e---2----3-5---3.----2-3------------------------------------------------
B------------------------------3/--7------------------------------------
G--------------------------4--------------------------------------------
D-----------------------------------------------------------------------
A-----------------------------------------------------------------------
E-----------------------------------------------------------------------


e-----------------------------------------------------------------------
B-----------------------3/--7-------------------------------------------
G---5-----------4---5---------------------------------------------------
D-----------------------------------------------------------------------
A-----------------------------------------------------------------------
E-----------------------------------------------------------------------


20170315

MIKE HOWE A LONG WAY TO GO TAB (RE-VISITED)


Mike Howe - "A Long Way To Go" instrumental acoustic guitar song.
Capo on the 4th fret - standard tuning.
Download the Guitar Pro Tab below.



MIKE HOWE A LONG WAY TO GO TAB

GP5 + GP6 + PDF >> 

G1                         - Capo on the 4th -  
e-----------------------------------------------------------------------
B-----------------------------------------------------3---3-------3-----
G-----------------------------------------------------------------------
D-----------------------------------------------------------------------
A-----------------------------------------------------------------------
E-----------------------------------------------------------------------

G2
e---------0-------------------------------------------------------------
B-----3-----3---3---------3---------------3---------------3-------------
G-------0-----0---0---0-----0---0-----0-----0---0-----0-----0---0-------
D-----------------------2-----2---0-----0-----0---0-----0-----0---0-----
A---3---------------3---------------2---------------2-------------------
E-----------------------------------------------------------------------


G1
e-----------------------------------------------------------------------
B---3-5---5-------3-3-1---1-------1-1--3--3------3h5-3------------------
G-----------------------------------------------------------------------
D-----------------------------------------------------------------------
A-----------------------------------------------------------------------
E-----------------------------------------------------------------------


20170309

LOS LONELY BOYS HEAVEN TAB (INTRO SOLO)


Los Lonely Boys - Heaven starts with a cool guitar solo until 0:30.
Half-step down tuning and use the neck pick-up on your Fender Stratocaster.
Download the Guitar Pro 6, GP5 and PDF files below.



LOS LONELY BOYS HEAVEN TAB

GP5 + GP6 + PDF >>

Intro solo

eb---7~----7.---------8/10-10-10-10-10-10-10\8----8.--------------------
Bb---8~----8.--------10/12-12-12-12-12-12-12\10---10.-------------------
Gb----------------------------------------------------------------------
Db----------------------------------------------------------------------
Ab----------------------------------------------------------------------
Eb----------------------------------------------------------------------


eb-----12.--12.--12.--12.--12-12\10----10.------------------------------
Bb-----13.--13.--13.--13.--13-13\12-12-12.------------------------------
Gb----------------------------------------------------------------------
Db----------------------------------------------------------------------
Ab----------------------------------------------------------------------
Eb----------------------------------------------------------------------


eb---10.--10.--10.--10-10\8-----8.---10.--12.--12.--10-10-x-8--x--------
Bb---12.--12.--12.--12-12\10-10-10.--12.--13.--13.--12-12-x-10-x--------
Gb----------------------------------------------------------------------
Db----------------------------------------------------------------------
Ab----------------------------------------------------------------------
Eb----------------------------------------------------------------------


20170304

PETE KORVING AVE MARIA NO MORRO TAB (GUITAR PRO 6 - PDF)


Pete Korving's instrumental guitar cover of Ave Maria No Morro.
Download the GP6 and PDF files below.



PETE KORVING AVE MARIA NO MORRO TAB

GP6 + PDF >>

Intro

e-------9-------9.----9------------------9-------9.----9----------------
B---------9---------------8~---------------9---------------8--\---------
G---9---------9-----9----------------9---------9-----9------------------
D-----------------------------------------------------------------------
A-----------------------------------------------------------------------
E-----------------------------------------------------------------------


Part 1

e-----------------------------------------------------------------------
B-----------------------------------------------------------------------
G-----------------------------------------------------------------------
D---------------------------2--2~-------222-----------2-4-2-2-----------
A---2-2-2-2--2~-------2-1-2------------------4~----------------3~-------
E-----------------------------------------------------------------------


e-----------------------------------------------------------------------
B-----------------------------------------------------------------------
G-----------------------------------------------------------------------
D---2-4-2.--------------------------------------------------------------
A----------2--2~--------222~-----2-4--4/6-\--2--2~----------------------
E-----------------------------------------------------------------------

20170224

GIPSY KINGS NO VOLVERE TAB (INSTRUMENTAL GUITAR COVER)


Gipsy Kings - No Volvere instrumental guitar cover played by Tamer Zeynioglu.
Standard tuning. See the TAB under the video.



GIPSY KINGS NO VOLVERE TAB

GP5 + GP6 + PDF >>

Part 1

e--------3~-------------------3--3---2-2---0-0h2p0-----0-3.-------------
B---0--------0-----0-------0-----------------------3-3------------------
G---------------0-------0-----------------------------------------------
D-----------------------------------------------------------------------
A-----------------------------------------------------------------------
E--------0------------0----------0---------0----------------------------


e---2--------2-----------2--2~---0-0h2p0--------------2-----------------
B---------3-----------3------------------3-3~---1-1-3-------------------
G------2-----------2----------------------------------------------------
D---0-----------0-----------0--------------0----------------------------
A-----------------------------------------------------------------------
E-----------------------------------------------------------------------


e---0--------0--------0-2-3.----------------------0-2.------------------
B---------1-------------------1--------1--------3-----------------------
G------0-----------0----------------2--------2--------------------------
D---------------2----------------2--------------------------------------
A---3-------------------------0-----------0-----------------------------
E-----------------------------------------------------------------------


20170219

VASCO ROSSI TU VUOI DA ME QUALCOSA TAB (GUITAR SOLO BY STEF BURNS)

Vasco Rossi - Tu Vuoi Da Me Qualcosa guitar solo played by Stef Burns
The solo starts about 4:02 in this version.
Download the GP6, GP5 and PDF files below.



VASCO ROSSI TU VUOI DA ME QUALCOSA SOLO TAB

GP5 + GP6 + PDF >>

(4:02 - 4:30)

e-----------------------------------------------------------------------
B-------------------10~----------9~----------12~------------------------
G---------------9-------------------------------------------------------
D-------------9---9-----------------------------------------------------
A-------7-/11-----------------------------------------------------------
E---7h9-----------------------------------------------------------------


e-----------------------------------------------------------------------
B-----------------------------------------------------------------------
G---11~----------9~-----------(13)---(11)-------------------------------
D--------------------------------------------/13~---------h14p13p11~----
A-----------------------------------------------------------------------
E-----------------------------------------------------------------------


e-----------------------------------------------------------------------
B-----------------------------------------------------------------------
G-------11(13)---(11)(13)-------(11)p9-11~------------------------------
D---9h11----------------------------------------------------------------
A-----------------------------------------------------------------------
E-----------------------------------------------------------------------


20170214

ZAKK WYLDE DARKEST HOUR TAB (GUITAR SOLO COVER BY GAKU)


Zakk Wylde - Darkest Hour guitar solo cover played by Gaku.
Download the GP6, GP5 and PDF files below.



ZAKK WYLDE DARKEST HOUR SOLO TAB

GP5 + GP6 + PDF >>

e--10-------9-------7---------------------------------------------------
B--------------------10-8-7-10-8-7--------------------------------------
G---------------------------------9-7-6-9-7-6---------------------------
D--------------------------------------------9-7-5-9-7-5------x-x-x-----
A-------------------------------------------------------9-7-5-x-x-x-----
E-----------------------------------------------------------------------
                    x x x x x  x xx x x x x xx x x x x xx x x 


e-----------------------------------------------------------------------
B--7----------------7---------------7--8--7--7--------------------------
G--9(11)(11)--------9(11)~~~-----------------9(11)------(11)(9)p7-9~~~\-
D-----------------------------------------------------------------------
A-----------------------------------------------------------------------
E-----------------------------------------------------------------------


e-----------------------------------------------------------------------
B--x-x-10(12)(10)(12)(10)(12)--(10)--12(14)(12)(14)(12)(14)--(12)-------
G--x-x------------------------------------------------------------------
D-----------------------------------------------------------------------
A-----------------------------------------------------------------------
E-----------------------------------------------------------------------

20170209

SOLAS JOHNNY'S GONE FOR A SOLDIER TAB (INTRO + VERSE)


Johnny's Gone For A Soldier based on the traditional Irish song, Suil a Ruin.
This version by Solas is played in Double Dropped D tuning with Capo on the 2nd fret.
Download the Guitar Pro Tab below.



SOLAS JOHNNY'S GONE FOR A SOLDIER TAB

GP5 + GP6 + PDF >>

Intro Solo

d---5-------4--5-4-------4-4\2--0---------------------------------------
B-------------------5---------------------------------------------------
G---------------------5-----------2h4-----------------------------------
D-----------------------------------------------------------------------
A-----------------------------------------------------------------------
D-----------------------------------------------------------------------


d-----------------0h2--5-3\2--0-----0-----------------------------------
B---------------------------------5-------------------------------------
G---4\2-0---0h2h4-----------------------0-------------------------------
D-----------------------------------------------------------------------
A-----------------------------------------------------------------------
D-----------------------------------------------------------------------


d---5--4-----------------------5--4-------------------------------------
B---------5--6/7--7\5--3-------------5----------------------------------
G-------------------------3/4-------------------------------------------
D-----------------------------------------------------------------------
A-----------------------------------------------------------------------
D-----------------------------------------------------------------------


20170204

SNATAM KAUR RA MA DA SA TAB (ACOUSTIC GUITAR)


Snatam Kaur - Ra Ma Da Sa relaxing meditation mantra.
Minimal - but very nice - guitar playing in the background from about 0:40 on.
Download the PDF and GP files below.



SNATAM KAUR RA MA DA SA TAB

GP5 + GP6 + PDF >>

Verse

e---------------3-----------------------3-------------------------------
B-----------3-------3---------------3-------3---------------------------
G-------5---------------5-------5---------------5-----------------------
D---5-----------------------5-------------------------------------------
A-----------------------------------------------------------------------
E-----------------------------------------------------------------------


e-------------3-----------------------3-----------------------3---------
B---------3-------3---------------3-------3---------------3-------3-----
G-----5---------------5-------5---------------5-------5---------------5-
D-------------------------5-----------------------5---------------------
A-0---------------------------------------------------------------------
E-----------------------------------------------------------------------


e---------------3-----------------------3-------------------------------
B-----------3-------3---------------3-------3---------------------------
G-------5---------------5-------5---------------5-----------------------
D---5-----------------------5-------------------------------------------
A-----------------------------------------------------------------------
E-----------------------------------------------------------------------


20170128

ROGER DYKE STREETS OF LONDON TAB (INSTRUMENTAL GUITAR COVER)

Roger Dyke plays an instrumental guitar cover of Streets of London.
Original song by Ralph McTell.
Download the Guitar Pro Tab below.



ROGER DYKE STREETS OF LONDON TAB

GP5 + GP6 + PDF >>

#1

e---13/14---14~----14-12-10.---9~---------------------------------------
B---14/15---15~----15-14-12.--10~---------------------------------------
G-----------------------------------------------------------------------
D-----------------------------------------------------------------------
A-----------------------------------------------------------------------
E-----------------------------------------------------------------------


e---6/7---7~----7-5-3---3/5~--------------------------------------------
B---7/8---8~----8-7-5---5/7~--------------------------------------------
G-----------------------------------------------------------------------
D-----------------------------------------------------------------------
A-----------------------------------------------------------------------
E-----------------------------------------------------------------------


e---13/14---14~----14-12-10.---9~---------------------------------------
B---14/15---15~----15-14-12.--10~---------------------------------------
G-----------------------------------------------------------------------
D-----------------------------------------------------------------------
A-----------------------------------------------------------------------
E-----------------------------------------------------------------------



20170124

MICHAEL MUCKLOW RAIN TAB (RELAXING ACOUSTIC GUITAR SONG)


Michael Mucklow - Rain - relaxing acoustic guitar song.
From the album - Silent Voices.
See the TAB under the video.


MICHAEL MUCKLOW RAIN TAB

GP5 + GP6 + PDF >>

Part 1

e------------------0--------------------0-------------------------------
B------------0--------0--------0-----------0----------------------------
G---------6--------------6--------6-----------6-------------------------
D------6--------6--------------------6-----------6----------------------
A---4-----------------------4-------------------------------------------
E-----------------------------------------------------------------------


e------------------------0----------------------------------------------
B---5-/7-----------7-----------7--------7-p0-h4-p0----------------------
G------------8--------------------8-------------------------------------
D-----------------------------------------------------------------------
A---------9-----9-----9-----9--------9----------------------------------
E---0-------------------------------------------------------------------


e------------------0--------------------0-------------------------------
B------------0--------0--------0-----------0----------------------------
G---------6--------------6--------6-----------6-------------------------
D------6--------6--------------------6-----------6----------------------
A---4-----------------------4-------------------------------------------
E-----------------------------------------------------------------------


20170115

THE SPOTNICKS KARELIA TAB (GUITAR PRO - 1966)


The Spotnicks - Karelia from 1966. Lead guitar line.
Download the Guitar Pro Tab below.



THE SPOTNICKS KARELIA TAB

GP5 + GP6 + PDF >>

e----------5----------------------3----------------------1--------------
B-------5----------5-----------3----------3-----------1----------1------
G-----5--------------5.------4--------------4.------2--------------2.---
D-----------------------------------------------------------------------
A-----------------------------------------------------------------------
E-----------------------------------------------------------------------


e---0-------0---0---0-----0---------------------------------------------
B---0---------------------------0---1-----1-0-------0-------------------
G---1-----------------------2-------------------2-----------------------
D-----------------------------------------------------------------------
A-----------------------------------------------------------------------
E-----------------------------------------------------------------------


e-----1---1---0-----0---------------------------------------------------
B---0-----------------0---1---3---3--3-1.--0.---------------------------
G----------------------------------------------2------------------------
D-----------------------------------------------------------------------
A-----------------------------------------------------------------------
E-----------------------------------------------------------------------


20170110

GEORGE HARRISON SOMETHING TAB (INSTRUMENTAL GUITAR COVER BY CAUE LOBO)

Caue Lobo plays an instrumental guitar cover of Something by George Harrison.
Sounds amazing!
Download the Guitar Pro Tab below.



GEORGE HARRISON SOMETHING TAB

GP5 + GP6 + PDF >>

Part 1

e-----------------------------------------------------------------------
B-----------------------------------------------------------------------
G------2.--(5)(4)-2.--3-------4-----------------------------------------
D-----------------------------------------------------------------------
A-----------------------------------------------------------------------
E-----------------------------------------------------------------------


e-----------------------------------------------------------------------
B-----------------------------------------------------------------------
G---4/5---5-------5~----------5---4~------------------------------------
D---------------------------5-------------------------------------------
A-----------------------------------------------------------------------
E-----------------------------------------------------------------------


e-----------------------------------------------------------------------
B-----------------------------------------------------------------------
G---5\3-3-3.--3.--5.--5/7-----5.--5-------------------------------------
D----------------------------------5h7~----------\----------------------
A-----------------------------------------------------------------------
E-----------------------------------------------------------------------


20170105

YOU'LL NEVER WALK ALONE TAB (INSTRUMENTAL GUITAR COVER BY NEVILLE WORTHINGTON)

Neville Worthington plays an instrumental guitar cover of You'll Never Walk Alone.
The original song was written by Rogers and Hammerstein.
Download the Guitar Pro 6, GP5 and PDF files below.



YOU'LL NEVER WALK ALONE INSTRUMENTAL TAB

GP5 + GP6 + PDF >>

e-----------------------------------------------------------------------
B-----------------------------------------------------------------------
G-----------------------------------------------------------------------
D---2---0--------------------2---0--------------------------------------
A---------3------------------------3------------------------------------
E-----------------------------------------------------------------------


e-----------------------------------------------------------------------
B-----------------------------------------------------------------------
G-----------------------------------------------------------------------
D---2---3-5-----------------2-----0-------------------------------------
A-----------------------------------------------------------------------
E-----------------------------------------------------------------------


e-----------------------------------------------------------------------
B-----------------------------------------------------------------------
G-----------------------------------------------------------------------
D---2-3-----------------5---3-2-----------------5---2-0-----------------
A-----------------------------------------------------------------------
E-----------------------------------------------------------------------


20161230

JOE BONAMASSA BRIDGE TO BETTER DAYS TAB (GUITAR SOLO, LIVE)

Joe Bonamassa plays a brilliant guitar solo from 2:03 to 3:44
On YouTube: 'Joe Bonamassa - Bridge To Better Days (Arhus Denmark - July 2009)'
Download the GP5, GP6 and PDF files below.



JOE BONAMASSA BRIDGE TO BETTER DAYS SOLO TAB

GP5 + GP6 + PDF >>

e-------------5-----------------5---------------------------------------
B-------------5-----------------5--------------5/7-x-5-5----------------
G--------------------------------------------------x--------------------
D----5-7~-------7~-----5-7~-------7~-----7p5---5/7-x-5-5---4---4-5-5-6-6
A--0--------0--------0--------0--------0-----7--------------------------
E--------------------------------------------------------x-2---2-3-3-4-4
   x        x        x        x        x


e-------------5-----------------5---------------------------------------
B-------------5-----------------5--------------5/7-x-5-5----------------
G--------------------------------------------------x--------------------
D----5-7~-------7~-----5-7~-------7~-----7p5---5/7-x-5-5---4---4-5-5-6-6
A--0--------0--------0--------0--------0-----7--------------------------
E--------------------------------------------------------x-2---2-3-3-4-4
   x        x        x        x        x


e-------------5-----------------5---------------------------------------
B-------------5-----------------5--------------5/7-x-5-5----------------
G--------------------------------------------------x--------------------
D----5-7~-------7~-----5-7~-------7~-----7p5---5/7-x-5-5---4---4-5-5-6-6
A--0--------0--------0--------0--------0-----7--------------------------
E--------------------------------------------------------x-2---2-3-3-4-4
   x        x        x        x        x



20161225

MICHAEL BUBLÉ CHRISTMAS BABY PLEASE COME HOME TAB (GUITAR SOLO)

Michael Bublé - Christmas (Baby Please Come Home)
There is a cool guitar solo at 1:18. 
Download the GP6 GP5 and/or PDF files below.



MICHAEL BUBLÉ CHRISTMAS BABY PLEASE COME HOME TAB

GP5 + GP6 + PDF >>

(1:16 - 1:33)

e-----------------------------------------------------------------------
B-----------------------------------------------------------------------
G-----------------------------------------------------------------------
D-----------------------------------------------------------------------
A-------------------------4-------4h6---4~----\-------------------------
E-----------2---4---4/6-------6-----------------------------------------


e-----------------------------------------------------------------------
B-----------7-----------------------------------------------------------
G-----------6h8---6-----------------------------------------------------
D---------------------6h8---6-------------------------------------------
A-------------------------------8\6-4~----------------------------------
E------------------------------------------6.---------------------------


e-----------------------------------------------------------------------
B-----------------------------------------------------------------------
G---------4-------------------------------------------------------------
D---------4h6p4---4~----6.----/8.----4h6p4---4~----6--\-----------------
A---------------6--------------------------6----------------------------
E-----------------------------------------------------------------------


20161221

CELINO ROMERO LA PALOMA 2 TAB (CLASSICAL GUITAR COVER)

Celino Romero plays La Paloma 2, very nice classical guitar cover.
He is using Dropped D tuning.
Download the Guitar Pro tab below.



CELINO ROMERO LA PALOMA 2 TAB

GP5 + GP6 + PDF >>

e-----------------------------------------------------------------------
B-----------------------------------------------------------------------
G-----------------------------------------------------------------------
D------------0-----------------0-----------------0----------------------
A----------0-----0-----------0-----0-----------0-----0------------------
D--0-----------------0-----------------0--------------------------------
   x       x x   x   x       x x   x   x       x x   x


e-----------------------------------------------------------------------
B-----------------------------------------------------------------------
G-----------------------------------------------------------------------
D------------0---4-/-7~---------------------------------9~--------------
A----------0-----------------0-5.--0-------9---10-12--0-----------------
D--0-----------------0-----------------0--------------------------------
   x       x x


e-----------------------------------------------------------------------
B-----------------------------------------------------------------------
G-----------------------------------------------------------------------
D----11~---12-9-11----7---7\5--------------------------------<7>--------
A-------------------0---------------0-4.--7.-------------<7>------------
D--0-------------------------------------------<7>----------------------


20161215

DHALIF ALI A THOUSAND YEARS TAB (INSTRUMENTAL GUITAR COVER OF CHRISTINA PERRI'S SONG)

Dhalif Ali (dhalif) plays an instrumental guitar cover of A Thousand Years.
The original song is played by Christina Perri.
Download the Guitar Pro Tab below.



DHALIF ALI A THOUSAND YEARS TAB

GP5 + GP6 + PDF >>

Verse

e-----------------------------------------------------------------------
B-----------------------------------------------------------------------
G-----------------------------------------------------------------------
D---8~----------------------8~----------10/12--\10--p8------------------
A---------------------------------------x-------------------------------
E-----------------------------------------------------------------------


e-----------------------------------------------------------------------
B-----------------------------------------------------------------------
G---------------------------------------8/10--p8\7----------------------
D---8~----------------------8~----------x-------------------------------
A-----------------------------------------------------------------------
E-----------------------------------------------------------------------


e-----------------------------------------------------------------------
B-----------------------------------------------------------------------
G----------------10--p8\7-----------------------------------------------
D---8------------x------------10----/12-----7~--/-8---------------------
A---------8h10~---------------------------------------------------------
E-----------------------------------------------------------------------


20161209

AA BONDY I'M SO LONESOME I COULD CRY TAB (HANK WILLIAMS SONG)

AA Bondy plays I'm So Lonesome I Could Cry by Hank Williams.
Very nice fingerpicking and a harp solo. Standard tuning + CAPO on the 2nd.
See the TAB under the video.



AA BONDY I'M SO LONESOME I COULD CRY TAB

GP5 + GP6 + PDF >>

Intro                   - Capo on the 2nd -

e-------------0---------------------------------------------------------
B---1-----------------1-------0-----0h1-------0-------1-------1---------
G---------0-------0-------0-------0-------0-------0-------0-------0-----
D-------2-------2-------2-------2-------2-------2-------2-------2-------
A---3---------------3---------------3---------------3-------------------
E-----------3---------------3---------------3---------------3-----------


e-------------------------3p0-----------------0-----3---0-----0---------
B-----1-----3p1---1-------------3p1-----1-------------------3-----------
G---------2-----2-----0-------0-----0-----0-------0-------0-------0-----
D-------3-------3-------2-------2-------2-------2-------2-------2-------
A-------------------3-------3-------3-------3-------3-------3-----------
E---1-------1-----------------------------------------------------------


e-------3-----3-----1-------------------------0---------------0---------
B-----------------0-----------------1---------------0h1-----------------
G-------------------------0-------0-------0-------0-------0-------------
D-------0-------0-------0-------0-------2-------2-------2-------2-------
A---------------------------0h2-----3---------------3-------------------
E---3-------3-------3-----------------------3---------------3-----------