Showing posts with label guitar. Show all posts
Showing posts with label guitar. Show all posts

20180113

BURNS ERNST DADDY'S BOLERO TAB (FRANCIS GOYA COVER)

Burns Ernst plays Daddy's Bolero by Francis Goya
Very nice instrumental guitar cover
Download the TAB below



BURNS ERNST DADDY'S BOLERO TAB

GP5 + GP6 + PDF >>

Part 1
         A7              Dm                              A7
e-----------0-1-0h1p0----1------------------0-1-0h1p0----1-0------------
B------/3--------------3---------------/3--------------3----------------
G-----------------------------------------------------------------------
D-----------------------------------------------------------------------
A-----------------------------------------------------------------------
E-----------------------------------------------------------------------


                        Gm                A                Dm
e------0---1-1h3--1--0--6~------------5h6p5----------3-1-0-1p0----------
B--------------------------------------------------------------3--------
G-----------------------------------------------------------------------
D-----------------------------------------------------------------------
A-----------------------------------------------------------------------
E-----------------------------------------------------------------------


                         Dm                              A7
e-----------0-1-0h1p0----1------------------0-1-0h1p0----1-0------------
B------/3--------------3---------------/3--------------3----------------
G-----------------------------------------------------------------------
D-----------------------------------------------------------------------
A-----------------------------------------------------------------------
E-----------------------------------------------------------------------


20180106

TONYSHAD BOBBY'S GIRL TAB (SHADOWMAN PLAYS BOBBY'S GIRL)


Tonyshad plays an instrumental guitar cover of Bobby's Girl
White Fender Stratocaster forever !!!
Download the TAB below


TONYSHAD BOBBY'S GIRL TAB

GP5 + GP6 + PDF >>

Part 1

e-----------------------------------------------------------------------
B---------------3---5-3-------------------------------------------------
G-----------4-------------------------------------4---5-4---------------
D-------5-----------------5~------------------5-------------5~----------
A-----------------------------------------7-----------------------------
E-----------------------------------------------------------------------


e-----------------------------------------------------------------------
B---------------5.--3---------------------------------------------------
G-----------5-------------4-----4---2~----------------------------------
D-------5---------------------5-----------------------------------------
A-----------------------------------------------------------------------
E-----------------------------------------------------------------------


e-----------------------------------------------------------------------
B---------------3---5-3-------------------------------------------------
G-----------4-------------------------------------4---5-4---------------
D-------5-----------------5~------------------5-------------5~----------
A---------------------------------------7-------------------------------
E-----------------------------------------------------------------------


20171228

DON FELDER HOTEL CALIFORNIA SOLO TAB (ACOUSTIC LIVE)

Don Felder plays Hotel California acoustic guitar solo live at the Jeff Probst Show.
It's in G minor instead of the original B minor - but sounds cool.
Download the TAB below.



DON FELDER HOTEL CALIFORNIA SOLO TAB

GP5 + GP6 + PDF >>

Main Part

e-------------------3-----3-------------------5-------------------------
B-----------------3-----------------------3-------3---------------------
G-------------3-------------3---5-------5-------------------------------
D---------5-------------------------4---------------4-------------------
A-------5---------------------------------------------------------------
E---3-------------------------------------------------------------------


e-------------3-------------------------------------3-------------------
B---------6-------6-------6-------------------3-------------------------
G-------5---------------5---------5-------3-------3---------------------
D---3---------------3-----------3-------5-------------------------------
A---------------------------3-------7-----------------------------------
E-----------------------------------------------------------------------


e-------------------3-------------------------6-------------------------
B-------------4-------------------4-------3-------3---------------------
G---------3-------3-------3-----3-------3-----------------3-------3-----
D-------5-------------------3h5-----3-------------------3-------3-------
A---6-------------------6---------------------------5-------------------
E-----------------------------------------------------------6-----------


20171223

PMF IMPRESSIONI DI SETTEMBRE TAB (FINGERSTYLE GUITAR COVER BY LEONARDO CRENNA)

Leonardo Crenna plays Impressioni di Settembre by PMF
Amazing fingerstyle guitar cover in standard tuning.
Download the TAB below.



PMF IMPRESSIONI DI SETTEMBRE FINGERSTYLE TAB

GP5 + GP6 + PDF >>

Verse

e-----------------------------------------------------------------------
B---------------3-3-3-3~--------3-3-3-----------------------------------
G---------------0-0-0-0---------0-0-2---2-2~---0h2-2~-------------------
D-----------------------------------0-----------------------------------
A---2-------------------------------------------------------------------
E---0-------------------------------------------------------------------


e---0-------------------------------------------------0-----0-----------
B---0---------------------------------------------7/8---0h3---0---------
G---6-----------------------------------------------------------0h2-----
D---7-----------7-7~---7~-----7-7/9-9-----------------------------------
A---0-------------------------------------------------------------------
E---0---------------------------------0---------------------------------


e-----------------------------------------------------------------------
B---3--------------------------------0----------------------------------
G---2---------2-2-2-2~--------2-2/4\-2----------------------------------
D---0--------------------------------2---2-2---0h2-2~-------------------
A---0--------------------------------0----------------------------------
E-----------------------------------------------------------------------


20171218

STEVIE RAY VAUGHAN LOOKIN' OUT THE WINDOW TAB (GUITAR SOLO, LIVE AT DAYTONA BEACH 1987)

Stevie Ray Vaughan - Lookin' Out The Window guitar solo
This solo is taken from a live version - 1987 Daytona Beach
It starts about 1:58 and goes until 3:19 in this video
Download the TAB below


STEVIE RAY VAUGHAN LOOKIN' OUT THE WINDOW SOLO TAB (LIVE)

GP5 + GP6 + PDF >>

Solo (1:58 - 3:19)

eb---------------------------------------------5------------------------
Bb---------------------------------------5---7-----x--------------------
Gb-------2-2---2-----2-----------2---2----------------------------------
Db---------------5'-----------------------------------------------------
Ab---0-----------------5'--4-0-----0---0--------------------------------
Eb----------------------------------------------------------------------


eb---8(10)-----8(10)---8-5---8-5-----5---5------------------------------
Bb---x-----------------------------5------------------------------------
Gb-----------------------------------------7(9)---7-5~------------------
Db----------------------------------------------------------------------
Ab----------------------------------------------------------------------
Eb----------------------------------------------------------------------


eb------------------5---5----5----------5-------------------------------
Bb---7p5----------5---5---8'---5------5---8------8----------------------
Gb---7p5-----7(9)----------------7(9)-------7(9)---(9)(7)-5~----7p5-----
Db-------7-5--------------------------------------------------------7-5-
Ab----------------------------------------------------------------------
Eb----------------------------------------------------------------------
         x x


20171212

LAS PELOTAS MAS QUE UN DESEO TAB (GERMAN Y GABI EN MTQN)

German y Gabi de Las Pelotas play Mas Que Un Deseo live at MTQN.
One single acoustic guitar with Capo on the 1st fret.
Download the TAB below.



LAS PELOTAS MAS QUE UN DESEO TAB

GP5 + GP6 + PDF >>

 - CAPO on the 1st -
Intro

e-----------------------------------------------------------------------
B-----------0-----------3-----------0-----------0-----------------------
G-------0-----0-----0-----0-----0-----0-----0-----0---------------------
D-----4---4-------4---4-------4---4-------4---4-------------------------
A---2-----------2-----------2-----------2-------------------------------
E-----------------------------------------------------------------------


e-----------0-----------------------0-----------------------------------
B-------3-----3-----------------3-----3---------------------------------
G-----2---2-------0---0---0---2---2-------0---0---0---------------------
D---0-----------0---2---4---0-----------0---2---4-----------------------
A-----------------------------------------------------------------------
E-----------------------------------------------------------------------



Verse

e-----------------------------------------------------------------------
B-----------0-----------3-----------0-----------0-----------------------
G-------0-----0-----0-----0-----0-----0-----0-----0---------------------
D-----4---4-------4---4-------4---4-------4---4-------------------------
A---2-----------2-----------2-----------2-------------------------------
E-----------------------------------------------------------------------


20171207

JD MCPHERSON LET THE GOOD TIMES ROLL TAB (GUITAR SOLO)


There is a cool guitar solo in Let The Good Times Roll by JD McPherson
It starts about 1:25 and goes till 2:00
Download the tab in Guitar Pro 6 and in PDF below


JD MCPHERSON LET THE GOOD TIMES ROLL SOLO TAB

GP5 + GP6 + PDF >>

Solo

e---8-8-7-7-5-5---------------------------------------------------------
B---------------8-8-6-6-5-5-------------8-------10---8------------------
G---------------------------7-7-5-5-7/9--------------7h9----------------
D-----------------------------------------------------------------------
A-----------------------------------------------------------------------
E-----------------------------------------------------------------------
    x x x x x x x x x x x x x x x x


e---8-8-7-7-5-5---------------------------------------------------------
B---------------8-8-6-6-5-5-------------8-------10---8------------------
G---------------------------7-7-5-5-7/9--------------7h9----------------
D-----------------------------------------------------------------------
A-----------------------------------------------------------------------
E-----------------------------------------------------------------------
    x x x x x x x x x x x x x x x x


e---8-8-7-7-5-5---------------------------------------------------------
B---------------8-8-6-6-5-5-------------8-------10---8------------------
G---------------------------7-7-5-5-7/9--------------7h9----------------
D-----------------------------------------------------------------------
A-----------------------------------------------------------------------
E-----------------------------------------------------------------------
    x x x x x x x x x x x x x x x x


20171201

JOE BONAMASSA SLOE GIN GUITAR SOLO TAB (LIVE AT ROYAL ALBERT HALL)

Joe Bonamassa live Sloe Gin guitar solo with a Gibson Les Paul at Royal Albert Hall
The solo starts about 5:10 in this video and goes right until 6:40
Download the TAB below



JOE BONAMASSA SLOE GIN SOLO TAB

GP5 + GP6 + PDF >>

~ 5:10

e-----------------------------------------------------------------------
B---13(15)-------13(15)---13(15)~---------------------------------------
G-----------------------------------------------------------------------
D-----------------------------------------------------------------------
A-----------------------------------------------------------------------
E-----------------------------------------------------------------------


e---10--13(15)-13(15)------------(15)(13)p10-13~-----13.----------------
B-----10----------------------------------------------------------------
G-----------------------------------------------------------------------
D-----------------------------------------------------------------------
A-----------------------------------------------------------------------
E-----------------------------------------------------------------------


e---15(17)---(18)-15(17)-----(15)-13---------10-------------------------
B---------------------------------x-15-15~-----10-13(15)~---------------
G-----------------------------------------------------------------------
D-----------------------------------------------------------------------
A-----------------------------------------------------------------------
E-----------------------------------------------------------------------


20171125

THE BEATLES NO REPLY TAB (INSTRUMENTAL GUITAR COVER BY ERIC)


The Beatles - No Reply instrumental guitar cover played by Eric
Download the TAB below.



THE BEATLES NO REPLY INSTRUMENTAL TAB

GP5 + GP6 + PDF >>

Part 1

e-----------------------------------------------------------------------
B-----5-6-5-------------6-5---------------------------------------------
G-----------7-5-------------7-5-4~----------------5---------------------
D---------------7~--------------------------7-5-7---7-5~----------------
A-----------------------------------------------------------------------
E-----------------------------------------------------------------------


e-----------------------------------------------------------------------
B-----5-6-5-------------6-5-----------------5---------------------------
G-----------7-5-------------7-5-4~--------------7-5~--------------------
D---------------7~------------------------------------------------------
A-----------------------------------------------------------------------
E-----------------------------------------------------------------------


e-----------3-3-3-5~------------------------3-3-3-5~--------------------
B-----------5-5-5-5~------------------------5-5-5-5~--------------------
G-----------------------------------------------------------------------
D-----------------------------------------------------------------------
A-----------------------------------------------------------------------
E-----------------------------------------------------------------------

20171120

LA PALOMA BLANCA TAB (CLASSICAL GUITAR COVER)


La Paloma Blanca classical guitar cover
Download the TAB below



LA PALOMA BLANCA TAB

GP5 + GP6 + PDF >>

Part 1

e---5-------5-------5-5-----5-------4-------4-------4-4-----4-----------
B---5-----5-----5---5-----5-5---5---5-----5-5---5---5-----5-5---5-------
G---6---------------6-----6-6---6---4-----4-4---4---4-----4-4---4-------
D-----------------------------------------------------------------------
A-----------------------------------------------------------------------
E---5---------------5---------------0---------------0-------------------


e---5-------5-------5-5-----5-------4-------4-------4-4-----4-----------
B---5-----5-5---5---5-5---5-5---5---5-----5-5---5---5-5---5-5---5-------
G---6-----6-6---6---6-6---6-6---6---4-----4-4---4---4-4---4-4---4-------
D-----------------------------------------------------------------------
A-----------------------------------------------------------------------
E---5---------------5---------------0---------------0-------------------


e---5-------x---0---0-----------------------0---2-----------------------
B---5-------x---------------2---------2--/3-----------------------------
G---6-------x-----------------------------------------------------------
D-------------------------2---------------------------------------------
A-------------------0---------------0-----------------------------------
E---5-------x-------------------0---------------------------------------


20171115

PAULINHO MOSKA NOS BRACOS DE ISABEL TAB


Very nice bossa nova guitar playing in Nos Bracos De Isabel (Paulinho Moska)
Download the TAB below



PAULINHO MOSKA NOS BRACOS DE ISABEL TAB

GP5 + GP6 + PDF >>

Intro

e-----------------------------------------------------------------------
B---6---6-----6-----6---6-----6-----4---4-----4-----6---6-----6---------
G---7---7-----7-----7---7-----7-----5---5-----5-----7---7-----7---------
D---5---5-----5-----5---5-----5-----6---6-----6-----6---6-----6---------
A---6-------6-----6-6-------6-----x-------------------------------------
E-----------------------------------6-------6-----x-6-------6-----x-----


e-----------------------------------------------------------------------
B---6---6-----6-----6---6-----6-----4---4-----4-----6---6-----6---------
G---7---7-----7-----7---7-----7-----5---5-----5-----7---7-----7---------
D---5---5-----5-----5---5-----5-----6---6-----6-----6---6-----6---------
A---6-------6-----6-6-------6-----x-------------------------------------
E-----------------------------------6-------6-----x-6-------6-----x-----


Verse

e-----------------------------------------------------------------------
B---8---8-----8-----4---4-----4-----3---3-----3-----2---2-----2---------
G---7---7-----7-----4---4-----4-----3---3-----3-----3---3-----3---------
D---8---8-----8-----3---3-----3-----1---1-----1-----2---2-----2---------
A---6-------------------------------3-------3-----3-3-------3-----x-----
E-----------6-----x-3-------3-----3-------------------------------------


20171110

BURNS ERNST HELP ME MAKE IT THROUGH THE NIGHT TAB (INSTRUMENTAL GUITAR COVER)

Kris Kristofferson - Help Me Make It Through The Night
Instrumental guitar cover played by Burns Ernst
Download the TAB below



BURNS ERNST HELP ME MAKE IT THROUGH THE NIGHT TAB

GP5 + GP6 + PDF >>

Part 1

e-----------------------------------------------------------------------
B----------5---6-5-----3---5.-------------------------------------------
G------5----------------------------------------------------------------
D------------------------------5~---------------------------------------
A-----------------------------------------------------------------------
E-----------------------------------------------------------------------


e-----------------------------------------------------------------------
B------5-5---5h6---5---3------------------------------------------------
G------------------------5---5~-----------------------------------------
D-----------------------------------------------------------------------
A-----------------------------------------------------------------------
E-----------------------------------------------------------------------


e-----------------------------------------------------------------------
B------3---5-5/6---5---3-6----------------------------------------------
G------------------------------4~---------------------------------------
D-----------------------------------------------------------------------
A-----------------------------------------------------------------------
E-----------------------------------------------------------------------


20171106

DJANGO REINHARDT TEARS TAB (GUITAR COVER BY SAMANTHA WELLS)

Samantha Wells plays Tears by Django Reinhardt
Nice guitar cover in standard tuning
Download the TAB below



DJANGO REINHARDT TEARS TAB

GP5 + GP6 + PDF >>

Part 1

e---------------------------------3---1---------------------------------
B---------1-----------1---------3------------5/6---5--------------------
G---------2-----------2-------2-------------4---------------------------
D-------2-----------2---------------------0-----------------------------
A---0---------0-3---------0-2-------------------------------------------
E---------------------------------------4-------------------------------


e---------------------------------3---1---------------------------------
B---------1-----------1---------3------------5/6---5--------------------
G---------2-----------2-------2-------------4---------------------------
D-------2-----------2---------------------0-----------------------------
A---0---------0-3---------0-2-------------------------------------------
E---------------------------------------4-------------------------------


e-------0-0---0-1-----1-------------------------------------------------
B-------2-2---2-2-----2-----3-------3---------3-------------------------
G-------0-0---0-0-----0-----2---------2-----2---------------------------
D-------2-----------2-------3-----3-------3-----------------------------
A---1-----------1-----------0-------------------------------------------
E---------------------------------------1---------x---------------------

20171031

SVEIN BAKKEN BARNATRO TAB (INSTRUMENTAL GUITAR COVER)


Svein Bakken plays Barnatro (Childhood Faith) - instrumental guitar cover.
Download the tablature below.



SVEIN BAKKEN BARNATRO TAB

GP5 + GP6 + PDF >>

Part 1

e-----------4------3-4---7----------------------------------------------
B-------5-------------------------------5-4--3-------7-5----------------
G---4------------------------4-----------------6-----------6---4--------
D-----------------------------------------------------------------------
A-----------------------------------------------------------------------
E-----------------------------------------------------------------------


e--------------------4--------------------------------------------------
B----------------5-------7--------4---5--5/7----------------------------
G--------4-----4------------6-------------------------------------------
D---6--7----------------------------------------------------------------
A-----------------------------------------------------------------------
E-----------------------------------------------------------------------


e---------------------------7-------------------------------------------
B---------5---5/9-----8-9--------------5-4--3-------7-5-----------------
G---4-4-------------------------4-------------6-----------6---4---------
D-----------------------------------------------------------------------
A-----------------------------------------------------------------------
E-----------------------------------------------------------------------


20171024

DOROTHY NO CHURCH IN THE WILD TAB (LIVE IN AUSTIN, 2015 #JAMINTHEVAN)


Dorothy - No Church In The Wild live #Jaminthevan
Standard tuning, download the TAB below



DOROTHY NO CHURCH IN THE WILD TAB

GP5 + GP6 + PDF >>

Intro

e-----------------------------------------------------------------------
B-----------------------------------------------------------------------
G-----------------------------------------------------------------------
D--------------------2-----------2h4------------------2-----------------
A--------------2p0-----2------------------------2p0-----4-2---2---------
E---2~---5-2-5-----2-----5-2-5-2-----2~---5-2-5-----2-------5---5-2~----


e-----------------------------------------------------------------------
B-----------------------------------------------------------------------
G-----------------------------------------------------------------------
D--------------------2-----------2h4------------------2-----------------
A--------------2p0-----2------------------------2p0-----4-2---2---------
E---2~---5-2-5-----2-----5-2-5-2-----2~---5-2-5-----2-------5---5-2-0---


Verse

e-----------------------------------------------------------------------
B-----------------------------------------------------------------------
G-----------------------------------------------------------------------
D--------------------2-----------2h4------------------2-----------------
A--------------2p0-----2------------------------2p0-----4-2---2---------
E---2~---5-2-5-----2-----5-2-5-2-----2~---5-2-5-----2-------5---5-2-0---


20171019

THE ELECTROMANIACS LAGRIMAS TAB (GUITAR PRO 6 + PDF)


The Electromaniacs - Lagrimas vintage instrumental guitar song.
Download the TAB below.



THE ELECTROMANIACS LAGRIMAS TAB

GP6 + PDF >>

Part 1

e-----------------------------------------------------------------------
B-----------------------------------------------------------------------
G-------------5-------4-------2---------------5-------4-------2---------
D---2-4-6-7-7---7-5-5---5-3-3---2---2-4-6-7-7---7-5-5---5-3-3---2-------
A-----------------------------------------------------------------------
E-----------------------------------------------------------------------
    x x x x x x x x x x x x x x x   x x x x x x x x x x x x x x x 


e--------12--12--12.--10--10h12--10--10h12p10--8~-----------------------
B---5-/--13------13.--12--12-----12--12-------10~-----------------------
G-----------------------------------------------------------------------
D-----------------------------------------------------------------------
A-----------------------------------------------------------------------
E-----------------------------------------------------------------------


e--------12--12--12--10--10h12--10--10h12p10--8~------------------------
B---5-/--13------13--12--12-----12--12-------10~------------------------
G-----------------------------------------------------------------------
D-----------------------------------------------------------------------
A-----------------------------------------------------------------------
E-----------------------------------------------------------------------

20171014

DOLLY PARTON DO I EVER CROSS YOUR MIND TAB (COVER BY LINDSAY STRAW)

Dolly Parton - Do I Ever Cross Your Mind acoustic guitar cover by Lindsay Straw.
Capo on the 1st fret, standard tuning. (actually on the 2nd but with half step down tuning)
Download the TAB with the lyrics below.



DO I EVER CROSS YOUR MIND TAB

GP5 + GP6 + PDF >>

Intro                        - Capo on the 1st -

e-----------------------------------------------------------------------
B---1---1---1-----1---1---1-----1---1---1-------------------------------
G---------------0---------------0---------------------------------------
D-------0---0h2-----2---0---------------0-------------------------------
A---3-----------------------3-------3-----------------------------------
E-----------------------------------------------------------------------


e-----------------------------------------------------------------------
B---1-----1---1---1-----1---------1-------------------------------------
G-------0---------------0-------0---------------------------------------
D---0h2-----2---0-----------0h2-----------------------------------------
A-------------------3---------------------------------------------------
E-----------------------------------------------------------------------


e-----------------------------------------------------------------------
B-------1---------------0---------0-----1-----1---1-----1---------------
G---0-------------------0-----------------------------------0---0-------
D-----------2---0---------------0-------0h2-0---0-----------------------
A---------------------------0h2-----3---------------3---0-------0-------
E-------------------3---------------------------------------3-----------


20171008

EGOIST ALL ALONE WITH YOU TAB (FINGERSTYLE GUITAR COVER)

All Alone With You fingerstyle guitar cover played by heechan.
Original song by EGOIST. Dropped D tuning and CAPO on the 2nd fret.
Download the tab files below.



ALL ALONE WITH YOU FINGERSTYLE TAB

GP5 + GP6 + PDF >>

Part 1

e---5<17>-4<16>---------------------------------------------------------
B---------------5<17>-<12>----------------------------------------------
G----------------------------2<14>---1<13>---2<14>p1<13>----------------
D--------------------------------------------------------2<14>---<12>---
A-----------------------------------------------------------------------
D---0--------------------------------------2----------------------------


e---------0--------------------------<12>-------------------------------
B-------0-----------------------<12>------------------------------------
G---1-2-------------1<13>-2<14>-----------------------------------------
D-----------------------------------------------------------------------
A-----------------------------------------------------------------------
D---4-------------------------------------------------------------------


e-------------------------------------------------0---------------------
B---------------------------------------------0-----------------0-------
G---1-----2---------1-----2-----------------------------------2---2-----
D-----------------------2-----------6---6-7-----------------------------
A---------------------2---------------4---------------------------------
D---0---------------2---------------4-----------------------------------

20171003

ELLERT NORDMARK I REMEMBER ELVIS PRESLEY TAB (INSTRUMENTAL GUITAR COVER)

Ellert Nordmark plays I Remember Elvis Presley (Danny Mirror)
Very nice instrumental guitar cover.
Download the TAB below.



ELLERT NORDMARK I REMEMBER ELVIS PRESLEY TAB

GP5 + GP6 + PDF >>

Part 1

e-----------------------------------------------------------------------
B-----------------------------------------------------------------------
G-----------------------------------------------------------------------
D-----------0-2-4-4-4-4-2-0---------------------------------------------
A---4-4-4-4-----------------4-------------------------------------------
E-----------------------------------------------------------------------
    x x x x x x x x x x x x 


e-----------------------------------------------------------------------
B-----------------------------------------------------------------------
G----------------------------------2~-----------------------------------
D-------0-2-------0-2-2/4~-----2/4--------------------------------------
A---4---------4---------------------------------------------------------
E-----------------------------------------------------------------------


e-----------------------------------------------------------------------
B-----------------------------------------------------------------------
G---1---2-2/4-2---1-----------------------------------------------------
D-------------------4-2~------------------------------------------------
A-----------------------------------------------------------------------
E-----------------------------------------------------------------------

20170928

BLAZE FOLEY IF I COULD ONLY FLY TAB (GUITAR PRO)


Blaze Foley plays If I Could Only Fly. One single guitar and Blaze Foley.
Half-step down tuning
Download the tab below.



BLAZE FOLEY IF I COULD ONLY FLY TAB

GP5 + GP6 + PDF >>

Intro

eb----------------------------------------------------------------------
Bb-------1-----------1-------------------0-----------0------------------
Gb-----------0-----------0-------0-----------0-----------0-------0------
Db---------------2h3---------3-------------------0h2--p0----------------
Ab---3-------------------------------------------------------0h2--------
Eb-----------------------------------3----------------------------------


eb---------------------------------------------------0------------------
Bb-------1---------------1---------------1---------------1-------1------
Gb-----------0---------------2---------------0---------------0----------
Db---------------0h3-------------3---------------2----------------------
Ab---3-------------------------------3----------------------------------
Eb-------------------1--------------------------------------------------


eb----------------------------------------------------------------------
Bb-------1-----------1-------------------0-----------0------------------
Gb-----------0-----------0-------0-----------0-----------0-------0------
Db---------------2h3---------3-------------------0h2--p0----------------
Ab---3-------------------------------------------------------0h2--------
Eb-----------------------------------3----------------------------------