Showing posts with label guitar lesson. Show all posts
Showing posts with label guitar lesson. Show all posts

20140215

ADELE ROLLING IN THE DEEP TAB (LESSON BY JUSTIN SANDERCOE)

Justin Sandercoe teaches us clearly how to play Rolling In The Deep by Adele.
He plays the the first parts of the song with a cool singer, Salena. That makes it easy to understand how to play the song. If you have troubles with the chord changes see the TAB under the video.


ADELE ROLLING IN THE DEEP TAB

PDF >>

Intro

e-----------------------------------------------------------------------
B-----------------------------------------------------------------------
G-----------------------------------------------------------------------
D-10-10-10-10-10-10-10-10--10-10-10-10-10-10-10-10----------------------
A-10-10-10-10-10-10-10-10--10-10-10-10-10-10-10-10----------------------
E-8--8--8--8--8--8--8--8---8--8--8--8--8--8--8--8-----------------------
  x  x  x  x  x  x  x  x   x  x  x  x  x  x  x  x 


Verse

e-----------------------------------------------------------------------
B-----------------------------------------------------------------------
G-----------------------------------------------------------------------
D-10-10-10-10-10-10-10-10--10-5--5--5--5--5--5--5-----------------------
A-10-10-10-10-10-10-10-10--10-5--5--5--5--5--5--5-----------------------
E-8--8--8--8--8--8--8--8---8--3--3--3--3--3--3--3-----------------------
  x  x  x  x  x  x  x  x   x  x  x  x  x  x  x  x 

e-----------------------------------------------------------------------
B-----------------------------------------------------------------------
G-----------------------------------------------------------------------
D-5--8--8--8--8--8--8--8---8--5--5--5--5--8--8--8-----------------------
A-5--8--8--8--8--8--8--8---8--5--5--5--5--8--8--8-----------------------
E-3--6--6--6--6--6--6--6---6--3--3--3--3--6--6--6-----------------------
  x  x  x  x  x  x  x  x   x  x  x  x  x  x  x  x  


20140108

PHIL COLLINS EASY LOVER TAB (SOLO)


An evergreen song with a brilliant guitar solo by Phil Collins and Philip Bailey.
Applevinus teaches us clearly how to play the solo of Easy Lover with his Epiphone guitar. TAB under the video.



PHIL COLLINS EASY LOVER SOLO TAB

PDF >>

e--------13.--x-13---\--------------------------------------------------
B-13.--x-13.--x-13---\----------9-----11.-------------------------------
G-13.--x--------------------/10-----------------------------------------
D-----------------------------------------------------------------------
A-----------------------------------------------------------------------
E-----------------------------------------------------------------------


e---------------------11--------8---------------------------------------
B-----9-11~----9----9----11----------9---\------------------------------
G----------------10---------------10------------------------------------
D-/10-------------------------------------------------------------------
A-----------------------------------------------------------------------
E-----------------------------------------------------------------------


e-----------------------------------------------------------------------
B---------13.--x-13.--x-13---\------------------------------------------
G---------13.--x-13.--x-13---\------------------------------------------
D-3---/-----------------------------6-8-8~----6---6---------------------
A--------------------------------/8-------------8---8---/---------------
E-----------------------------------------------------------------------


20140103

QUEEN LOVE OF MY LIFE TAB (BY BRIAN MAY HIMSELF)


This is a short guitar lesson how to play the main parts of Queen - Love Of My Life
taught by Brian May himself. See the TAB under the video.



QUEEN LOVE OF MY LIFE TAB

PDF >>

Part 1

e---------------2-------------------------------------------------------
B---3---2---3-----------------------3-----------------------------------
G--2----------------------------2---------------------------------------
D-0---------------------------------------------------------------------
A---------------------------------------4-------------------------------
E-----------------------------------------------------------------------


e----------------2------------------------------------------------------
B----3---2---3----------------------------------------------------------
G---4-----------------------------------4-------------------------------
D--4--------------------------------4-----------------------------------
A-2---------------------------------------------------------------------
E-----------------------------------------------------------------------


e-0---------------0-----------------------------------------------------
B-0-----------0-----------3-------2-------3-------5---\---2~------------
G-0-------0-------------------------------------------------------------
D-2---2---------------2-------2---2-------4-------5---\---2~------------
A---------------------------------0---0-------0-------------------------
E-0---------------------------------------------------------------------


20131227

GAME OF THRONES THEME TAB (ACOUSTIC GUITAR COVER BY CHARLIE PARRA DEL RIEGO)

Game of Thrones theme song played by Charlie Parra del Riego.
Awesome acoustic cover with a 2nd guitar line in the background.
Download the TAB below.



GAME OF THRONES THEME ACOUSTIC GUITAR TAB

GP5 + GP6 + PDF >>

Part 1

e-----------------------------------------------------------------------
B-----------------------------------------------------------------------
G-----------------------------------------------------------------------
D-7-------3-5-7-------3-5-7-------3-5-7-------3-5-----------------------
A-----5-----------5-----------5-----------5-----------------------------
E-----------------------------------------------------------------------


e-----------------------------------------------------------------------
B-----------------------------------------------------------------------
G-----------------------------------------------------------------------
D-7-------4-5-7-------4-5-7-------4-5-7.--------------------------------
A-----5-----------5-----------5-----------------------------------------
E-----------------------------------------------------------------------


Part 2

e-----------------------------------------------------------------------
B-----------------------------------------------------------------------
G-----------------------------------------------------------------------
D-7-----------------------3-5-7---------------3-5-----------------------
A-------------5-----------------------5---------------------------------
E-----------------------------------------------------------------------


20131203

COMMANDER CODY HOT ROD LINCOLN TAB (INTRO WITH LESSON)

Perfect detailed guitar lesson of Commander Cody - Hot Rod Lincoln intro part.
Thanks Bruce Lindquist for the lesson.
See the TAB below.



COMMANDER CODY HOT ROD LINCOLN TAB

PDF >>

e-----------------------------------------------------------------------
B-----------------------------------------------------------------------
G-----------------------------------------------------------------------
D-----------------------------------------------------------------------
A-----------------------------------------------------------------------
E-3'--------------------------------------------------------------------


e-----------------------------------------------------------------------
B-----------------------------------------------------------------------
G-----------------------------------------------------------------------
D-----------------------------------------2-2-4-2-5-2-4-5-4-2-----------
A---------2-2-4-2-5-2-4-5-4-2-----0-0-3-4---------------------3-4-------
E-0-0-3-4---------------------3-4---------------------------------------


e-----------------------------------------------------------------------
B-----------------------------------------------------------------------
G-----------------------------------------------------------------------
D---------4-4-6-4-7-4-6-7-6-4-----2-2-----2-2-----2-----2---2-2---------
A-2-2-5-6---------------------5-6-----4p2-----4p2---4p2-----------------
E-----------------------------------------------------------------------


20131011

EROS RAMAZOTTI UN EMOZIONE PER SEMPRE SOLO TAB AND LESSON


There is a cool acoustic guitar solo in Un Emozione Per Sempre by Eros Ramazotti.
Find the solo by 2:58 in the original song. TAB helps below.



EROS RAMAZOTTI UN EMOZIONE PER SEMPRE SOLO TAB

PDF >>

e-----------------------------------------------------------------------
B-4-5-7---5---4---------------------------------------------------------
G-----------------6---4---3---3h4~---------------3h4-3------------------
D--------------------------------------------------------4/6~-----------
A-----------------------------------------------------------------------
E-----------------------------------------------------------------------


e-----------------------------------------------------------------------
B---------------------4h5---4-------------------------------------------
G-3---3---3---4---6-----------------------------------------------------
D-------------------------------4---4h6~------------4h6-4~--------------
A-----------------------------------------------------------------------
E-----------------------------------------------------------------------


e-----------------------------------------------------------------------
B-----------------------------7-7-/-9-7~--------------------------------
G-6---6/8-6-4-4h6-4-----6/8---------------------------------------------
D-----------------------------------------------------------------------
A-----------------------------------------------------------------------
E-----------------------------------------------------------------------






20130927

JAMES BLUNT BONFIRE HEART TAB AND LESSON


Short guitar lesson how to play the nice chords of James Blunt - Bonfire Heart.
See the TAB below.



JAMES BLUNT BONFIRE HEART TAB

PDF >>

Intro

  C
e-----------------------------------------------------------------------
B-----1---------------1-------------1---------------1-------------------
G-----------0---------------0-------------0-------------0---------------
D---------2-----2---------2-------------2-----2-------------2-----------
A-3---------------3-------------3---------------3-----------------------
E-----------------------------------------------------------------------


Verse

  C
e-----------------------------------------------------------------------
B-----1---------------1-------------1---------------1-------------------
G-----------0---------------0-------------0-------------0---------------
D---------2-----2---------2-------------2-----2-------------2-----------
A-3---------------3-------------3---------------3-----------------------
E-----------------------------------------------------------------------

  Em
e-----------------------------------------------------------------------
B-----0---------------0---------------0---------------0-----------------
G-----------0---------------0---------------0-------------0-------------
D---------2-----2---------2-----2---------2-----2-------------0---------
A-----------------------------------------------------------------------
E-0---------------0---------------0---------------0---------------------


20130924

MORNING SUN TAB (RELAXING ACOUSTIC GUITAR MUSIC MIX BY WAVESDVDCOM)

There is an awesome video on YouTube shared by http://www.wavesdvd.com.
7 songs played with an acoustic guitar while sitting by the sea and enjoy the waves.
The first song is called Morning Sun (by Somber Guitar) played in Open G tuning (DGDGBd) See the TAB under the video.



SHORT GUITAR LESSON OF THE 1ST TRACK - MORNING SUN


MORNING SUN TAB

GP5 + GP6 + PDF >>

Part 1

d---7-------7-------7-------7-------------------------------------------
B-------0-------0-------0-------0---------------------------------------
G-----7-------7-------7-------7-----------------------------------------
D-0-------0-------0-------0---------------------------------------------
G-----------------------------------------------------------------------
D-----------------------------------------------------------------------


d---7-------7-------5-------5-------4-------4-------5-------5-----------
B-------0-------0-------0-------0-------0-------0-------0-------0-------
G-----7-------7-------4-------4-------2-------2-------4-------4---------
D-0-------0-------0-------0-------0-------0-------0-------0-------------
G-----------------------------------------------------------------------
D-----------------------------------------------------------------------


20130918

BILL HALEY MAMBO ROCK TAB (SOLO)


There is a very nice guitar solo in Bill Haley - Mambo Rock (1955)
If you want to learn an old school guitar solo you'll like it very much. Find the solo in the original version by 1:30.  TAB helps below.



BILL HALEY MAMBO ROCK SOLO TAB

PDF >>

e------------------12-13.---13.---13.---13.---13.-----13.---------------
B-16.---13-14-15-16-----------------------------------------16.---13----
G--------------------------------------------------------------------14.
D-----------------------------------------------------------------------
A-----------------------------------------------------------------------
E-----------------------------------------------------------------------


e-8--------------------------------8---\--------------------------------
B-----10-8-----------------------8--------------------------------------
G------------10-8---9------8h9------------------------------------------
D---------------------10------------------------------------------------
A-----------------------------------------------------------------------
E-----------------------------------------------------------------------


20130902

JUANES LA PAGA TAB


There is a tricky solo in Juanes - La Paga with 2 guitars at the same time.
See how to play both guitar lines in this video.  
TAB helps to learn the complete song below.


JUANES LA PAGA TAB

PDF >>

Chords

e-x---5---x---5---x---5---x---5---x---5---x---5---x---------------------
B-x---5---x---5---x---5---x---5---x---6---x---6---x---5---x---5---------
G-x---5---x---5---x---5---x---5---x---7---x---7---x---7---x---7---------
D-x---7---x---7---x---7---x---7---x---7---x---7---x---6---x---6---------
A-x---7---x---7---x---7---x---7---x---5---x---5---x---7---x---7---------
E-x---5---x---5---x---5---x---5---x-------------------------------------


Intro solo

e-----------------------------------------------------------------------
B-----------------------------------------------------------------------
G-8/9----------------------------7---9---10---12---10---7---9-----------
D-----------------------------------------------------------------------
A-6/7----------------------------5---7---8----10---8----5---7-----------
E-----------------------------------------------------------------------


e-----------------------------------------------------------------------
B-10---10---------------------------------------------------------------
G--------------------7---------7/9--------------------------------------
D-7----7----------------------------------------------------------------
A--------------------5---------5/7--------------------------------------
E-----------------------------------------------------------------------

20130816

AVICII WAKE ME UP TAB AND LESSON


There is a short video how to play Avicii - Wake Me Up on guitar. There is a verse part, a chorus and the solo. Put your CAPO on the 2nd fret and play the Am F C G and the E chords to get the real sound. See the TAB below.



AVICII WAKE ME UP TAB                                  

PDF >>

Intro / Chorus

  Am              F               C               C       G

e-0---0---0-0-0-0-1---1---1-1-1-1-0---0---0-0-0-0-0---0-0-3---3-3-------
B-1---1---1-1-1-1-1---1---1-1-1-1-1---1---1-1-1-1-1---1-1-0---0-0-------
G-2---2---2-2-2-2-2---2---2-2-2-2-0---0---0-0-0-0-0---0-0-0---0-0-------
D-2---2---2-2-2-2-3---3---3-3-3-3-2---2---2-2-2-2-2---2-2-0---0-0-------
A-0---0---0-0-0-0-3---3---3-3-3-3-3---3---3-3-3-3-3---3-3-2---2-2-------
E-----------------1---1---1-1-1-1-------------------------3---3-3-------


  Am              F               C               C       E

e-0---0---0-0-0-0-1---1---1-1-1-1-0---0---0-0-0-0-0---0-0-0---0-0-------
B-1---1---1-1-1-1-1---1---1-1-1-1-1---1---1-1-1-1-1---1-1-0---0-0-------
G-2---2---2-2-2-2-2---2---2-2-2-2-0---0---0-0-0-0-0---0-0-1---1-1-------
D-2---2---2-2-2-2-3---3---3-3-3-3-2---2---2-2-2-2-2---2-2-2---2-2-------
A-0---0---0-0-0-0-3---3---3-3-3-3-3---3---3-3-3-3-3---3-3-2---2-2-------
E-----------------1---1---1-1-1-1-------------------------0---0-0-------


Verse

  Am              F               C               C

e-0---0---0-0-0-0-1---1---1-1-1-1-0---0---0-0-0-0-0---0---0-0-0-0-------
B-1---1---1-1-1-1-1---1---1-1-1-1-1---1---1-1-1-1-1---1---1-1-1-1-------
G-2---2---2-2-2-2-2---2---2-2-2-2-0---0---0-0-0-0-0---0---0-0-0-0-------
D-2---2---2-2-2-2-3---3---3-3-3-3-2---2---2-2-2-2-2---2---2-2-2-2-------
A-0---0---0-0-0-0-3---3---3-3-3-3-3---3---3-3-3-3-3---3---3-3-3-3-------
E-----------------1---1---1-1-1-1---------------------------------------



20130804

CREEDENCE CLEARWATER REVIVAL HEY TONIGHT TAB


Short video how to play the intro part of Creedence Clearwater Revival - Hey tonight. Thanks JOHN FOGERTY for this awesome guitar riff and song. Use a tube amplifier and a LesPaul guitar with the bridge pick-up to get the original sound.
See the COMPLETE TAB under the video.


CREEDENCE CLEARWATER REVIVAL HEY TONIGHT TAB     

PDF >>

Intro

e-12-p9-9---7-p0-0---0---0---0---0---12-p9-9---7-p0-0---0---0---0---0---
B-0-----0---0----0---5---5---2---2---0-----0---0----0---5---5---2---2---
G-----------------------------------------------------------------------
D-----------------------------------------------------------------------
A-----------------------------------------------------------------------
E-----------------------------------------------------------------------


e-12-p9-9---7-p0-0---0---0---0---0-------0-------0-------0-------0------
B-0-----0---0----0---5---5---2---2-------0-------0-------0-------0------
G-----------------------------------------------------------------------
D------------------------------------6-------4-------6-------4----------
A-----------------------------------------------------------------------
E-----------------------------------------------------------------------


CARLOS SANTANA I LOVE YOU MUCH TOO MUCH TAB

There is a short video how to play the main parts of I Love You Much Too Much.
This is a nice instrumental love song by Carlos Santana.
See the TAB below.



CARLOS SANTANA I LOVE YOU MUCH TOO MUCH TAB      

PDF >>

Part 1

e------7----------------------------------------------------------------
B------------10.---8-7-10~-------------\--------------------------------
G-----------------------------------------------------------------------
D-9.--------------------------------------------------------------------
A-----------------------------------------------------------------------
E-----------------------------------------------------------------------


e-----------------------------------------------------------------------
B------10-----9.---8-7-8~-----------------------------------------------
G-----------------------------------------------------------------------
D-9.--------------------------------------------------------------------
A-----------------------------------------------------------------------
E-----------------------------------------------------------------------


20130724

GREEN DAY OH LOVE TAB

There is an awesome guitar solo in Green Day - Oh Love. The first half is played by Billie Joe, the other part is played by the new guitarist, Jason White. In the video we show you how to play the solo part with normal speed and then slower too.
TAB of the complete song below.



GREEN DAY OH LOVE TAB

PDF >>

Intro

e-----------------------------------------------------------------------
B-----------------------------------------------------------------------
G-------------------------------6---------------------------------------
D-x-x-6---6---x-------x-------x-6-----6---6---x-------x-------x---------
A-x-x-6---6---x-------x-------x-4-----6---6---x-------x-------x---------
E-x-x-4---4---x-------x-------x-------4---4---x-------x-------x---------


e-----------------------------------------------------------------------
B-----------------------------------------------------------------------
G-6-------6-----6-6---6---6---6-6---------------------------6-----------
D-6-------6-----6-6---6---6---6-6-6---6---x-------x-------x-6-----------
A-4-------4-----4-4---4---4---4-4-6---6---x-------x-------x-4-----------
E---------------------------------4---4---x-------x-------x-------------


20130722

THE CONNELS 74 75 TAB

There is a wonderful guitar solo in The Connels - 74 -75. You can learn this solo very easy, just tune your guitar half note lower (that is D# G# C# F# A# D# instead of the standard tuning) and watch this video.
You can also find the TAB of the complete song below.



THE CONNELS -74-75 TAB

PDF >>

SOLO

eb-------------------------5-----------------------------------3--------
Bb-5-----------5---------------8---5------------5-8-\-------------------
Gb-5---7---5---5---7---5------------------------------4-5--------4------
Db-----7---5-------7---5------------------------------------------------
Ab----------------------------------------------------------------------
Eb----------------------------------------------------------------------


eb----------------------------------------------------------------------
Bb----------------------------------------------------------------------
Gb-5-4h5-5-4-\--0------------0h2h4h5-------4.---2.---0-0h2~-------------
Db----------------------------------------------------------------------
Ab----------------------------------------------------------------------
Eb----------------------------------------------------------------------


20130719

JOHN MAYER YOUR BODY IS A WONDERLAND TAB (SOLO)


There is a cool guitar solo in John Mayer - Your Body Is A Wonderland.
You'll need a cutaway acoustic guitar otherwise it's hard to reach the higher notes.
TAB below help to learn this solo.



JOHN MAYER YOUR BODY IS A WONDERLAND TAB

PDF >>

Solo

e-12p10.----------------------------------------------------------------
B----------13.-----9/10.-----8.-----6---------------6h8.---10\8---------
G-12--------------------------------------------------------------------
D----------14.-----9/10.-----8.-----7---------------7/8.---10\8---------
A-----------------------------------------------------------------------
E-----------------------------------------------------------------------


e-12p10.-------------------10.-----7------------------------------------
B----------13.-----10.--------------------------------------------------
G-12-----------------------10.-----7------------------------------------
D----------14.-----10.--------------------------------------------------
A-----------------------------------------------------------------------
E-----------------------------------------------------------------------


e-12p10.----------------------------------------------------------------
B----------13.-----9/10.-----8.-----6---------------6h8.---10\8---------
G-12--------------------------------------------------------------------
D----------14.-----9/10.-----8.-----7---------------7/8.---10\8---------
A-----------------------------------------------------------------------
E-----------------------------------------------------------------------


e-12p10.-------------------15.-----12-----------------------------------
B----------13.-----10.--------------------------------------------------
G-12-----------------------16.-----12-----------------------------------
D----------14.-----10.--------------------------------------------------
A-----------------------------------------------------------------------
E-----------------------------------------------------------------------





20130708

DEEP BLUE SOMETHING BREAKFAST AT TIFFANY'S TAB

Deep Blue Something - Breakfast at Tiffany's guitar solos played fast and slow here. In the original song they use more effects like some delay and chorus, these make the solo sound much more complete and exciting.
See the TAB of the solos and the chords.



DEEP BLUE SOMETHING BREAKFAST AT TIFFANY'S TAB

PDF >>

Solo at 1:01

e-----------------------------------------------------------------------
B-----------------------------------------------------------------------
G-----------------------------------------------------------------------
D-5-5-5---4---2h4-0-----------------------------------------------------
A-----------------------------------------------------------------------
E-----------------------------------------------------------------------


e-----------------------------------------------------------------------
B-----------------------------------------------------------------------
G-----------------------------------------------------------------------
D-------0-----------2-------0-------------------------------------------
A-2-----------4---------------0-----------------------------------------
E-----------------------------------------------------------------------


20130630

BUDDY HOLLY HEARTBEAT TAB

Ric Tester makes here a clear lesson how to play the different guitar parts of Buddy Holly Heartbeat. He uses a Fender Telecaster with clean sound.
TAB of this cool lesson helps below.



BUDDY HOLLY HEARTBEAT TAB

PDF >>

Part 1

e-12-12.----12-14.----12.----10-10.----10-12.----10.--------------------
B-14-14.----14-15.----14.----12-12.----12-14.----12.--------------------
G-----------------------------------------------------------------------
D-----------------------------------------------------------------------
A-----------------------------------------------------------------------
E-----------------------------------------------------------------------


e-12-12.----12-14.----12.----10-10.----10-12.----10.--------------------
B-14-14.----14-15.----14.----12-12.----12-14.----12.--------------------
G-----------------------------------------------------------------------
D-----------------------------------------------------------------------
A-----------------------------------------------------------------------
E-----------------------------------------------------------------------


20130615

CARLOS SANTANA EL FAROL TAB AND GUITAR LESSON


Short guitar lesson how to play Carlos Santana - El Farol. (Supernatural album)
However in the video only the main parts of the song are shown, the TAB covers the complete album version.



CARLOS SANTANA EL FAROL TAB

PDF >>

Part 1

e-----------------------------------------------------------------------
B-13~------------------------13-12~-------------------------------------
G-----------------------------------------------------------------------
D-------------14-15~------------------------12h14~----------------------
A-----------------------------------------------------------------------
E-----------------------------------------------------------------------


e-----------------------------------------------------------------------
B-----------------------------------------------------------------------
G-14~------------------------------------14--13~------------------------
D--------------------------------12--15------------15-12h14---12h14p12--
A-------------15-17~---------14-----------------------------------------
E-----------------------------------------------------------------------


20130611

CARLOS SANTANA EUROPA TAB AND GUITAR LESSON


Short guitar lesson how to play Europa by Carlos Santana.
This lesson shows only the main parts.
See the TAB of the complete album version under the video.



CARLOS SANTANA EUROPA TAB

PDF >>

Part 1

e------8---10.---10/11---10.-----8--------------------------------------
B-8.-------------------------------11.---8h9~---------------------------
G-----------------------------------------------------------------------
D-----------------------------------------------------------------------
A-----------------------------------------------------------------------
E-----------------------------------------------------------------------


e------8-8h10-8~--------------------------------------------------------
B-9-11-----------------11.----------------------------------------------
G------------------------------10---/12~--------------------------------
D-----------------------------------------------------------------------
A-----------------------------------------------------------------------
E-----------------------------------------------------------------------