Showing posts with label guitar pro. Show all posts
Showing posts with label guitar pro. Show all posts

20161025

PINK FLOYD COMFORTABLY NUMB TAB (ELECTRIC GUITAR COVER BY KFIR OCHAION)

Kfir Ochaion plays an instrumental guitar cover of Comfortably Numb by Pink Floyd.
Great lead guitar playing with a nice Stratocaster.
See the TAB under the video. (0:00 - 1:54)



KFIR OCHAION COMFORTABLY NUMB TAB

GP5 + GP6 + PDF >>

Part 1

e-----------------------------------------------------------------------
B-----------------------------------------------------------------------
G-------------------------------2---------------------------------------
D---2-2/4~--------------------------------------------------------------
A-----------------------5-2---------4~----------------------------------
E-------------------2-5-----5-2-----------------------------------------
                    x x     x x

e-----------------------------------------------------------------------
B-----------------------------------------------------------------------
G-----------------------------------------------------------------------
D-----4p2-----4-----------------------------4-4~---2/4~-----------------
A---------5-2---5~------------------2p0-2-------------------------------
E---5-------------------------------------------------------------------
    x

e-----------------------------------------------------------------------
B-----------------------------------------------------------------------
G-----------------------------------2-----------------------------------
D---2/4-4~--------4~------------------2~--------------------------------
A-----------------------------0-4-0-------------4~----------------------
E-----------------------------------------------------------------------
                              x x x 



20161020

BOB DYLAN BOOTS OF SPANISH LEATHER TAB (COVER BY FLORBIN)

Great cover by Florbin, he sings Bob Dylan's Boots of Spanish Leather.
Standard tuning + CAPO on the 3rd fret.
See the TAB under the video.


BOB DYLAN BOOTS OF SPANISH LEATHER TAB

GP5 + GP6 + PDF >>

Intro                        CAPO on the 3rd

e-------------------0---------------------------------------------------
B-------------3-----------3---------1---------1-----0---------0---------
G---------0-------------------0-----------0---------------0-------------
D-------4-------4-------4-------4-------0-------0-------0-------0-------
A-----------------------------------------------------------------------
E---0-------0-------0-------0-------2-------2-------3-------3-----------


e-----------------------------------------------------------------------
B---1---------1-----0---------0-----0---------0-------------------------
G---------0---------------0---------------0-----------------------------
D-------2-------2-------0-------0-------0-------0-----------------------
A-----------------------------------------------------------------------
E---3-------3-------3-------3-------3-------3---------------------------


e-----------------------------------------------------------------------
B---3---------3-----1---------1-----0---------0-----0---------0---------
G---------0---------------0---------------0---------------0-------------
D-------4-------4-------0-------0-------0-------0-------0-------2/9-----
A-----------------------------------------------------------------------
E---0-------0-------2-------2-------3-------3-------3-------3-----------


20161017

RUCY THE BRIDE AND GROOM TAB (MAIN RIFF)


Rucy plays his original song 'The Bride And Groom' Brilliant lead guitar song.
See the TAB under the video.



RUCY THE BRIDE AND GROOM TAB

GP5 + GP6 + PDF >>

Part 1

e------11---10----------------------15----13-11\-----11----h13.---------
B-------------11\-/8h11~---/13\------------------/13--------------------
G---/8----8---------------------/12----12-------------------------------
D-----------------------------------------------------------------------
A-----------------------------------------------------------------------
E-----------------------------------------------------------------------


e-----------------------------------------------------------------------
B---11(13)---(11)~----------11(13)(11)-9-8------------------------------
G---x-----------------------x--------------11\10p8----------------------
D-----------------------------------------------------------------------
A-----------------------------------------------------------------------
E-----------------------------------------------------------------------


e--------10-------10-10h12~----------\----------------------------------
B-----------------------------------------------------------------------
G---9h10----10/12-------------------------------------------------------
D-----------------------------------------------------------------------
A-----------------------------------------------------------------------
E-----------------------------------------------------------------------


20161013

SLASH & MYLES KENNEDY BACK FROM CALI TAB (UNPLUGGED)

Slash & Myles Kennedy perform 'Back From Cali' with 2 acoustic guitars.
Great unplugged version, half-step down tuning.
Download the Guitar Pro Tab of the intro part.



SLASH & MYLES KENNEDY BACK FROM CALI TAB

GP5 + GP6 + PDF >>

Intro

eb-----------------------------------------------------------------------
Bb----------0-------3-0.--0.--0-----0-------x-------5\3.--3--------------
Gb---4------2h4.----4-4.--2.--4p2.--1~------x-------------2---2----------
Db---4------4-------4-----4.--4-----2~------x---4/6-6\4.--4--------------
Ab---2----------------------------------------------------------0.-------
Eb-----------------------------------------------------------------------


eb-----------------------------------------------------------------------
Bb----------0-------3-0.--0.--0-----0-------x-------5\3.--3--------------
Gb---4------2h4.----4-4.--2.--4p2.--1~------x-------------2---2----------
Db---4------4-------4-----4.--4-----2~------x---4/6-6\4.--4--------------
Ab---2----------------------------------------------------------0.-------
Eb-----------------------------------------------------------------------


eb-----------------------------------------------------------------------
Bb----------0-------3-0.--0.--0-----0-------x-------5\3.--3--------------
Gb---4------2h4.----4-4.--2.--4p2.--1~------x-------------2---2----------
Db---4------4-------4-----4.--4-----2~------x---4/6-6\4.--4--------------
Ab---2----------------------------------------------------------0.-------
Eb-----------------------------------------------------------------------

 

20161008

ELTON JOHN CAN YOU FEEL THE LOVE TONIGHT TAB (INSTRUMENTAL GUITAR COVER BY STEPHEN PETERS)

Great instrumental guitar cover of Can You Feel The Love Tonight by Stephen Peters.
Attention: 1 step down tuning (so DGCFAD)
See the TAB under the video.



CAN YOU FEEL THE LOVE TONIGHT TAB (INSTRUMENTAL)

GP5 + GP6 + PDF >>

Part 1

D-----------------------------------------------------------------------
A-----------------------------------------------------------------------
F--------4-5---5/7\5--------------------4-5---5/7--\5~------------------
C------7---------------5-5~-----------7---------------------------------
G-----------------------------------------------------------------------
D-----------------------------------------------------------------------


D-----------------------------------------------------------------------
A-------------------6-----5h6p5-------6~-----5h6p5----------------------
F-------4-5---------------------7---5--------------7---5-7~-------------
C---7-------------5-----------------------------------------------------
G-----------------------------------------------------------------------
D-----------------------------------------------------------------------


D-----------------------------------------------------------------------
A-----------------------------------------------------------------------
F-------------------4-5---5/7-5-----------------------------------------
C---5\3\2---------7---------------5-5~----------------------------------
G---------3\2----------------------------5h7p5\3------------------------
D-------------1.-----------------------------------1--------------------



20161003

ELVIS PRESLEY LOVE ME TENDER TAB (FINGERSTYLE GUITAR COVER BY KYÖSTI RAUTIO)

Nice and easy fingerstyle guitar cover of Love Me Tender played by Kyösti Rautio.
Standard tuning!
Download the Guitar Pro Tab below.



LOVE ME TENDER FINGERSTYLE TAB

GP5 + GP6 + PDF >>

Part 1

e-------3-------3-------3-------3---------------------------------------
B-------3-------3-------3-------3---------------------------------------
G-------0-------0-------0-------0---------------------------------------
D-----------0---------------0-------------------------------------------
A-----------------------------------------------------------------------
E---3---------------3---------------------------------------------------


e-------3---2---3-/-5~------5~------3---2---0---2---3-----------3-------
B---3-------------------5-----------1-------1-----------3-------3-------
G-----------------------------------2-------2-----------0-------0-------
D-----------------------------------0-----------------------0-----------
A-----------2-------4-----------------------0---------------------------
E---3-----------------------5-----------------------3-------------------


e-------3---2---3-/-5~------5~------3---2---0---2---3-------3-----------
B---3-------------------5-----------1-------1---------3---3-------------
G-----------------------------------2-------2-----------0---------------
D-----------------------------------0-----------------------------------
A-----------2-------4-----------------------0---------------------------
E---3-----------------------5-----------------------3-------------------


20160929

JOHN MAYER SLOW DANCING IN A BURNING ROOM TAB (MAIN RIFF)

John Mayer plays the main riff of Slow Dancing In A Burning Room.
The original video title says: John Mayer Slow Dancing in a Burning Room "Two-Rock"
See the TAB under the video.


JOHN MAYER SLOW DANCING IN A BURNING ROOM TAB (MAIN RIFF)

GP5 + GP6 + PDF >>

e-----------------------------------------------------------------------
B---------------------x-------------------------------------------------
G--------9~-----------x-------8/9-----9\8~------------------------------
D---------------------x-------9/11---11\9~---11---9---------------------
A---9/11--------------x----------------------11---9---------------------
E-------------9-------------------------------------0-------------------


e-----------------------------------------------------------------------
B---5---------5.--5-----------------------------x-----------------------
G---4h6~------4.--4----------------9~-----------x-----------------------
D-----------------6-----------------------------x-----------------------
A-----------------------------9/11--------------x-----------------------
E---5-------------0-------0-------------9-------------------------------


e-----------------------------------------------------------------------
B-----------------------------------------------------------------------
G---8/9-----9\8~------------4-----4---------4---------------------------
D---9/11---11\9~---11---9---4h6---6p4---4---4---------------------------
A------------------11---9---4---------7-----7---------------------------
E-------------------------0---------------0-0---------------------------
                          x               x



20160925

FUNTWO IT'S OK TAB (FUNTWO'S ORIGINAL SONG)


Funtwo's original song called It's OK - a song written to encourage you on harder days.
Download the GP5, GP6 and PDF files below.



FUNTWO IT'S OK TAB

GP5 + GP6 + PDF >>

e-------2---x------------------------------2---x------------------------
B-------3---x-2.-2.-2.-3-------------------3---x-2.-2.-2.-0-------------
G-------------2.-2.-2.-2-------------------------2.-2.-2.-0-------------
D---0-------x--------------------------0-------x------------------------
A-----------------------------------------------------------------------
E-------------2.-2.-2.-3-------------------------2.-2.-2.-3-------------


e-----------------------------------------------------------------------
B-----------------------------------------------------------------------
G---7---7~--p6----------------------------------------------------------
D--------------7----7h9~-----p7-7---------------------------------------
A----------------9.-----------------------------------------------------
E-----------------------------------------------------------------------


e-----------------------------------------------------------------------
B-----------------------------------------------------------------------
G-----------4-4------------7/9\7.-6~------------------------------------
D---5\4/5h7-----7.-5\4/5---------------7--------------------------------
A-----------------------------------------------------------------------
E-----------------------------------------------------------------------


20160920

JOHN CORABI HOOLIGAN'S HOLIDAY TAB (GUITAR SOLO)


There is an awesome acoustic guitar solo in Hooligan's Holiday by John Corabi.
It starts about 2:50 in the song, played in half-step down tuning.
See the TAB under the video.



JOHN CORABI HOOLIGAN'S HOLIDAY GUITAR SOLO TAB

GP5 + GP6 + PDF >>

 ~ 2:50

eb----------------------------------------------------------------------
Bb----------------------------------------------------------------------
Gb----------------------------------------------------------------------
Db------------------3~---5(7).--5(7)(5)p3--5-3~-------------------------
Ab--------------3-5----------------------5------------------------------
Eb---1-----1-3/5--------------------------------------------------------


eb----------------------------------------------------------------------
Bb------------6~----------6-\-------------------------------------------
Gb--------5-7-5~----------5-\-------------------------------------------
Db---3-5/7--------------------------------------------------------------
Ab----------------------------------------------------------------------
Eb----------------------------------------------------------------------


eb----------------------------------------------------------------------
Bb-----13(15)-----13.-12.-11.-10--------10-11-13------------------------
Gb-------------------------------12(13)----------12(14).--10~-----------
Db----------------------------------------------------------------------
Ab----------------------------------------------------------------------
Eb----------------------------------------------------------------------


20160917

LA FUGA EN VELA TAB (GUITAR SOLO)

Great guitar solo in La Fuga - En Vela around 1:50 till around 2:20.
The solo is in F# minor played in standard tuning.
See the TAB under the video.



LA FUGA EN VELA SOLO TAB

GP5 + GP6 + PDF >>

(1:54 - 2:22)

e-----------------------------------------------------------------------
B-----------------------------------------------------------------------
G---/14----14~-------------16(18).--14~---------------------------------
D-------16--------------------------------------------------------------
A-----------------------------------------------------------------------
E-----------------------------------------------------------------------


e-----------------------------------------------------------------------
B--17(19)---17-14-17-14h17p14--14---------------------------------------
G----------------------------16--16(18)(16)p14--14-16(18)(16)p14-16-16\-
D---------------------------------------------16------------------------
A-----------------------------------------------------------------------
E-----------------------------------------------------------------------


e----------------------------------------------17(19)---17~-------------
B--------------------------------17(19).--17.---------------------------
G---------14~-------16(18).--14-----------------------------------------
D---/14h16--------------------------------------------------------------
A-----------------------------------------------------------------------
E-----------------------------------------------------------------------


20160912

HANSEL PETHIG MAD WORLD TAB (FINGERSTYLE GUITAR COVER OF GARY JULES'S SONG)

Brilliant fingerstyle guitar cover of Mad World (Gary Jules) played by Hansel Pethig.
Dropped D tuning with CAPO on the 8th fret.
Download the Guitar Pro Tab below.



HANSEL PETHIG MAD WORLD TAB

GP5 + GP6 + PDF >>

Part 1

e------0----------------------------------------------------------------
B---1-----0--1-----0-----------------------------1----------------------
G---------------2-----0-------------------------------------------------
D---------2-----------2--4-----------2-----0----------------------------
A---0-----------0-----------------0-----------0-------------------------
D---------------------------0-----------0-------------------------------


e------0----------------------------------------------------------------
B---------0--1-----0--1--3----------------------------------------------
G---------------2--------0-----------0----------------------------------
D---------2-----------2-----------2-----4--2--0-------------------------
A---0-----------0--------------0-----------------3----------------------
D---------------------------0-------------------------------------------


e------0----------------------------------------------------------------
B---1-----0--1-----0-----------------------------1----------------------
G---------------2-----0-------------------------------------------------
D---------2-----------2--4-----------2-----0----------------------------
A---0-----------0-----------------0-----------0-------------------------
D---------------------------0-----------0-------------------------------



20160901

ERIC TINGSTAD DANZA MORA TAB (LEAD GUITAR LINE, GUITAR PRO)

Eric Tingstad - Danza Mora, great instrumental guitar song.
Sometimes there are 2 lead guitar lines in the song.
See the TAB under the video.



ERIC TINGSTAD DANZA MORA TAB

GP5 + GP6 + PDF >>

Part 1

e--------------------5-----------------------6---5~---------------------
B---------------5h6h8-----8----6---5----8-------------------------------
G---7~------------------------------------------------------------------
D-----------------------------------------------------------------------
A-----------------------------------------------------------------------
E-----------------------------------------------------------------------


e---6---p5--------------------------------------------------------------
B-------------8---8~-----------------------6---5~-----------------------
G--------------------------------6---h7---------------------------------
D-----------------------------------------------------------------------
A-----------------------------------------------------------------------
E-----------------------------------------------------------------------


e--------5~---------6--p5~-------------10~----------9h10p9--------------
B---5h6h8-------------------------------------------------10~-----------
G-----------------------------------------------------------------------
D-----------------------------------------------------------------------
A-----------------------------------------------------------------------
E-----------------------------------------------------------------------



20160823

DAVID LOCKE WONDERFUL TONIGHT TAB (FRET-KING COUNTRY SQUIRE)

David Locke plays an instrumental guitar cover of Wonderful Tonight.
The original song is by Eric Clapton.
Download the Guitar Pro Tab below.



DAVID LOCKE WONDERFUL TONIGHT TAB

GP5 + GP6 + PDF >>

Part 1

e-----------------------------------------------------------------------
B-------10(12)-(10)p8.-10~------10(12)-(10)p8.--------------------------
G-----7----------------------------------------9~-----------------------
D-----------------------------------------------------------------------
A-----------------------------------------------------------------------
E-----------------------------------------------------------------------


e-----------------------------------------------------------------------
B------10(12)-(10)p8.-10~----12~--/13~---15(17)---(15)~---\-------------
G---7.------------------------------------------------------------------
D-----------------------------------------------------------------------
A-----------------------------------------------------------------------
E-----------------------------------------------------------------------


e-----------------------------------------------------------------------
B------10(12)-(10)p8.-10~---------10(12)-(10)p8.------------------------
G------------------------------7.----------------9~---------------------
D-----------------------------------------------------------------------
A-----------------------------------------------------------------------
E-----------------------------------------------------------------------


20160804

THE ROLLING STONES I'M FREE TAB (GUITAR SOLO)


There is a little guitar solo in the legendary Rolling Stones song - I'm Free.
It starts about 1:10 in this video and sounds so cool ...
See the SOLO TAB under the video.



THE ROLLING STONES I'M FREE SOLO TAB

GP5 + GP6 + PDF >>

 ~ 1:10

e-----------------------------------------------------------------------
B-----------------------------------------------------------------------
G---0h2----2----0-----0--------------------0--2p0----0----0h2.----------
D------------------2-----2p0-----------0h2--------2---------------------
A----------------------------3------------------------------------------
E-----------------------------------------------------------------------


e-----------------------------------------------------------------------
B--------1-----1--------------------------------------------------------
G---0h2-----2--0---------0h2-p0--2p0----0----0h2------------------------
D------------------------------------2----------------------------------
A-----------------------------------------------------------------------
E-----------------------------------------------------------------------


e-----------------------------------------------------------------------
B-----------------------------------------------------------------------
G---0-----0---------------2p0----0--2p0------0--------------------------
D------2-----2-------2--------2---------2-------------------------------
A---------------3-------------------------------------------------------
E-----------------------------------------------------------------------


20160730

IVO CABRERA BLANK SPACE TAB (ELECTRIC GUITAR COVER OF TAYLOR SWIFT'S SONG)

Ivo Cabrera plays Blank Space by Taylor Swift.
Great instrumental guitar cover.
See the TAB under the video.



IVO CABRERA BLANK SPACE TAB

GP5 + GP6 + PDF >>

Part 1

e-----------------------------------------------------------------------
B-----------------------------------------------------------------------
G---------10-10.--10-10.--10-10.--10~----12/14--14-14.-12.-12.-10h12----
D-----------------------------------------------------------------------
A-----------------------------------------------------------------------
E-----------------------------------------------------------------------


e-----------------------------------------------------------------------
B-----------------------------------------------------------------------
G---------10-10.--10-10.--10-10.--10~----12/14--14-14.-12.-12.-10h12----
D---12------------------------------------------------------------------
A-----------------------------------------------------------------------
E-----------------------------------------------------------------------


e-----------------------------------------------------------------------
B-----------------------10--10-------------------------10--10-----------
G------10--10~-10---------------------10--10~-10------------------------
D---8------------10-10-------------8------------10-10-------------------
A-----------------------------------------------------------------------
E-----------------------------------------------------------------------


20160724

IVO CABRERA THINKING OUT LOUD TAB (INSTRUMENTAL GUITAR COVER OF ED SHEERAN'S SONG)

Ivo Cabrera plays Thinking Out Loud by Ed Sheeran.
Great instrumental guitar cover.
See the TAB under the video.



IVO CABRERA THINKING OUT LOUD TAB

GP5 + GP6 + PDF >>

e-----------------------------------------------------------------------
B-----------------------------------------------------------------------
G--------------2-2h4-2--------------------------------------------------
D------------4---------4-4---2---2---4----------------------------------
A------------------------------5-------2-5------------------------------
E-----------------------------------------------------------------------


e-----------------------------------------------------------------------
B-----------------------------------------------------------------------
G--------------2-2h4-2--------------------------------------------------
D------------4---------4-4---2------------------------------------------
A------------------------------5-5--------------------------------------
E-----------------------------------------------------------------------


e-----------------------------------------------------------------------
B-----------------------------------------------------------------------
G--------------2-2h4-2--------------------------------------------------
D------------4---------4-4---2---2---4----------------------------------
A------------------------------5-------2-5------------------------------
E-----------------------------------------------------------------------


20160717

ELLERT NORDMARK HOPELESSLY DEVOTED TO YOU TAB (INSTRUMENTAL GUITAR COVER)

Ellert Nordmark plays Olivia Newton John's Hopelessly Devoted To You.
Very nice instrumental guitar cover.
See the TAB under the video.


ELLERT NORDMARK HOPELESSLY DEVOTED TO YOU TAB

GP5 + GP6 + PDF >>

Part 1

e-----------------------------------------------------------------------
B---6---5-6---6/8-6---5~-------6---5-6---8-5~---------------------------
G-----------------------------------------------------------------------
D-----------------------------------------------------------------------
A-----------------------------------------------------------------------
E-----------------------------------------------------------------------


e-----------------------------------------------------------------------
B---6---5-6---6/8-6---5-6---6/8-5~--------------------------------------
G-----------------------------------------------------------------------
D-----------------------------------------------------------------------
A-----------------------------------------------------------------------
E-----------------------------------------------------------------------


Part 2

e-----------------------------------------------------------------------
B-----------------------------------------------------------------------
G----------------------------1-1-1h2------------------------------------
D-----2~---------2--2~---------------4~---------------------------------
A---4----------4--4-----------------------------------------------------
E-----------------------------------------------------------------------


20160710

THE ANIMALS BOOM BOOM TAB (INTRO + VERSE)

The Animals play a great version of John Lee Hooker's  Boom Boom.
Use a CAPO on the 1st fret to get the original key of the song.
See the TAB of the intro and the verse part under the video.



THE ANIMALS BOOM BOOM TAB

PDF >>

Intro

e-----------------------------------------------------------------------
B--------3--------------------------------------------------------------
G---3/4----2--0--------------------------0--3-2--0----------------------
D---------------2--0-2-----------------2-----------2--0-2---------------
A-----------------------------------------------------------------------
E-----------------------------------------------------------------------


e-----------------------------------------------------------------------
B--------3--------------------------------------------------------------
G---3/4----2--0--------------------------0--3-2--0----------------------
D---------------2----------------------2-----------2--0-2---------------
A------------------2-0--------------------------------------------------
E-----------------------------------------------------------------------


e-----------------------------------------------------------------------
B--------3--------------------------------------------------------------
G---3/4----2--0-----4-------------------------0---0---------------------
D---------------2------------------------0--2---------2-----------------
A--------------------------------------2--------------------------------
E-----------------------------------------------------------------------



20160705

BURNS ERNST VISIONS TAB (CLIFF RICHARD INSTRUMENTAL COVER)

Burns Ernst plays Visions by Cliff Richard.
Very nice instrumental guitar cover.
See the TAB under video.



BURNS ERNST VISIONS TAB

GP5 + GP6 + PDF >>

Part 1

e-----------------------------------------------------------------------
B-----------------------------------------------------------------------
G-----------------------------------------------------------------------
D----------------------------4-------4/--7~-----------------------------
A---4--4-------4-2~--------------5--------------------------------------
E-----------------------------------------------------------------------


e-----------------------------------------------------------------------
B-----------------------------------------------------------------------
G-----------------------------------2---1-------------------------------
D---4--0--------2---------------1----------4-2--------------------------
A------------------4--------2-------------------------------------------
E-----------------------------------------------------------------------


e-----------------------------------------------------------------------
B-----------------------------------------------------------------------
G-----------------------------------------------------------------------
D---0-------------------------------------------------------------------
A-----4---4~------4-2------2h4--2-0~------------------------------------
E-----------------------------------------------------------------------


20160625

BLAZE FOLEY CLAY PIGEONS TAB (RARE LIVE)


Blaze Foley sings Clay Pigeons on the front porch.
He is using standard tuning with Capo on the 2nd fret.
See the TAB under the video.



BLAZE FOLEY CLAY PIGEONS TAB

GP5 + GP6 + PDF >>

Intro                  Capo on the 2nd

e-----------------------------------------------------------------------
B---0---------0-----1p0-------0-----1---------1-----3p1-------1---------
G---------0---------------2---------------0---------------0-------------
D-------0-------0-------0-------0-------2-------2-------2-------2p0-----
A-----------------------------------3---------------3-------------------
E---3-------3-------3-------3---------------3---------------3-----------


e-------------------------------------------------3---------------------
B-------------0-----------3-------------------0---------------0---------
G---------0-------2-----------2---0-------------------------------0-----
D-------0-------0-------0-------0-------0-------0-------0-------0-------
A-----------------------------------------------------------------------
E---3-------3-------2-------2-------3-------3-------3-------3-----------


Verse

e-----------------------------------------------------------------------
B-------------0---------------0-----1---------1---------------1---------
G-----------------0---------------0-------0-------0---------------0-----
D-------0-------0-------0-------0-------2-------2-------2-------2-------
A-----------------------------------3---------------3-------------------
E---3-------3-------3-------3---------------3---------------3-----------