Showing posts with label guitar tab. Show all posts
Showing posts with label guitar tab. Show all posts

20161105

ZORBA THE GREEK TAB (FINGERSTYLE COVER BY CACHO TIRAO)

Zorba the Greek (Zorba el Griego) played by the great Cacho Tirao.
Awesome fingerstyle version from a live TV show.
See the TAB under the video.



CACHO TIRAO ZORBA THE GREEK TAB

GP5 + GP6 + PDF >>

Part 1

e---------5.--------------5.--------------5.--------------5.------------
B---------5.--------------5.--------------5.--------------5.------------
G---------6.--------------6.--------------6.--------------6.------------
D-----------------------------------------------------------------------
A-0.------------------------------0.------------------------------------
E-----------------0.------------------------------0.--------------------


e-----------------------------------------------------------------------
B-4/5~------5.--------------5-----4/5~------5.--------------5-----------
G-----------6.--------------6---------------6.--------------6-----------
D-----------7.--------------7---------------7.--------------7-----------
A-0.------------------------------0.------------------------------------
E-------------------0.------------------------------0.------------------


e-----------------------------------------------------------------------
B-7p5-4-4/5~------5.--------------5-----4/5~------5.---------------5.---
G-----------------6.--------------6---------------6.---------------6.---
D-----------------7.--------------7---------------7.---------------7.---
A-------0.------------------------------0.------------------------------
E-------------------------0.-------------------------------0.-----------


20150222

HANSEL PETHIG THE BOXER TAB (FINGERSTYLE GUITAR COVER)

Hansel Pethig plays a brilliant fingerstyle guitar cover of The Boxer (Paul Simon).
He is using standard tuning with Capo on the 2nd fret.
See the TAB under the video.



HANSEL PETHIG THE BOXER TAB

GP5 + GP6 + PDF >>

Part 1                     - CAPO on the 2nd -

e-----------------------------------------------------------------------
B-3p0---0-----0---------------------------------------------------------
G-----2---2-----2---0-----0-----0---------------------------------------
D-----------3-----3---3-----3-------------------------------------------
A-----------------------5-----5-----------------------------------------
E-----------------------------------------------------------------------


e-----------------------------------------------------------------------
B-----------0---------------0---------------0---------------0h1---------
G-------0-------0-------0-------0-------0---------------0---------------
D-----0-------0-------0-------0-------0-------0-------0-------0---------
A-----------------------------------------------------------------------
E-3-------3-------3-------3-------3-------3-------3-------3-------------


Part 2

e-----------0-----------------------------3---2---0-----0---2p0---------
B-3-----3-------3-----0-----0h1---3-------------------------------------
G-----------------------------------------------------------------------
D-----0-------0-------0-------0-------0-------0-------2-------2---------
A-----------------------------------------------------------------------
E-3-------3-------3-------3-------3-------2-------0-------0-------------


20150208

MIKE PINTO TEMPTATION TAB (LIVE AT THE MOBOOGIE LOFT)

Mike Pinto plays Temptation acoustically live at the MoBoogie.
Cool intro solo with some reggae chords.
See the TAB under the video.


MIKE PINTO TEMPTATION TAB

PDF >>

Intro

e-5-7-7-7-7.--7.--5-7-7-7--8-7.--5.--2-----------7-5--------------------
B-7-8-8-8-8.--8.--7-8-8-8-10-8.--7.--4---------------8-7-5-7-4.---------
G----------------------------------------------4------------------------
D-----------------------------------------------------------------------
A-----------------------------------------------------------------------
E-----------------------------------------------------------------------


e-5-7-7-7-7.--7.--5-7-7-7--8-7.--5.--2-----------2-2/3\2.--2---3.-------
B-7-8-8-8-8.--8.--7-8-8-8-10-8.--7.--4-----------4-4/5\4.--4---5.-------
G-----------------------------------------------------------------------
D-----------------------------------------------------------------------
A-----------------------------------------------------------------------
E-----------------------------------------------------------------------


e-5-7-7-7-7.--7.--5-7-7-7--8-7.--5.--2-----------7-5--------------------
B-7-8-8-8-8.--8.--7-8-8-8-10-8.--7.--4---------------8-7-5-7-4.---------
G----------------------------------------------4------------------------
D-----------------------------------------------------------------------
A-----------------------------------------------------------------------
E-----------------------------------------------------------------------


20150111

THE RYDERS SECRET LOVE TAB (LIVE IN TILBURG 2010)


The Ryders play a brilliant instrumental version of Secret Love live in Tilburg.
The lead guitarist is called Kurt Fröberg.
See the TAB of the lead guitar line and the chords here.



THE RYDERS SECRET LOVE TAB

PDF >>

Part 1

  A
e-----------------------------------------------------------------------
B-----------------------------------------------------------------------
G-----------------------------------------------------------------------
D-----2-2-----2-2-----2-2-----2-2-----2-2-----2-2-----2-2---------------
A-0---------------0---------------0---------------0---------------------
E---------0---------------0---------------0---------------0-------------
  x   x x x   x x x   x x x   x x x   x x x   x x x   x x x

  A
e-----------------------------------------------------------------------
B-----------------------------------------------------------------------
G-----------------------------------------------------------------------
D-1h2---1/2-----------0h2p0---------------------------------------------
A---------------------------4---0---2---4-------------------------------
E-------------------------------------------0---------------------------

  A                                   Bm     E
e-----------------------------------------------------------------------
B-----------------------------------------------------------------------
G-----------------------------------------------------------------------
D-------------------------0---2---4-------------------------------------
A-----0-----------2---4---------------2---------------------------------
E-0---------------------------------------------------------------------


20150101

HANSEL PETHIG SCARBOROUGH FAIR TAB (FINGERSTYLE GUITAR COVER)

Hansel Pethig plays a nice fingerstyle guitar cover of Scarborough Fair.
He uses standard tuning with Capo on the 4th fret.
See the TAB under the video.



HANSEL PETHIG SCARBOROUGH FAIR TAB

GP5 + GP6 + PDF >>

Part 1

e-----8---7---7---5\3-3-------5---3---3\1-1---0-------------------------
B---5---5-----------------------0---------------------------------------
G-----------7---7---5---5---5-------4---2---2---2-----------------------
D-----------------------------------------------------------------------
A-0-----------0-----------0-----------0---------------------------------
E-----------------------------------------------------------------------


e-----------------------------------------------------------------------
B-------0-----------0-------1-0-1-0-----1-0-1-0-------------------------
G-----2---2-------2---2-----2-0-2-0-----2-0-2-0-------------------------
D---0-------0---0-------0-3---------0-----------------------------------
A-----------------------------------------------------------------------
E-1-----------3-----------------------3---------------------------------


Part 2

e-------------0---------------------------0-----------------------------
B---------0-----------0---0-----0h1p0-----------3-----------------------
G-------5---5-------5---0-------------0-------0---0---------------------
D-----7-----------7-----------0-------------4---------------------------
A-0-----------0-------------------------0-------------------------------
E-------------------------3---------------------------------------------


20141225

SNOW SORA NO YURIKAGO TAB (GUITAR COVER BY ANIMELODIES1)

Animelodies1 plays a great fingerstyle guitar cover of Snow - Sora No Yurikago.
He uses Dropped D tuning with Capo on the 2nd fret.
A '0' in the tablature means the open string.
See the TAB under the video.


SNOW SORA NO YURIKAGO TAB

PDF >>

Part 1

e-----12---10---10---9~----------------9---7--------9~------------------
B---------------10-----------------------------10-----------------------
G-9-------------------------------------------------8~------------------
D-----------------------------------------------------------------------
A-----------------------------------------------------------------------
D-----------------------------------------------------------------------


e-----9---10-------7---5~------------------5---7---9---0----------------
B-6------------9---7-------------------7---------------8~---------------
G---------6-------------------------------------------------------------
D-----------------------------------------------------------------------
A-----------------------------------------------------------------------
D-----------------------------------------------------------------------


e---------5----------------------------------------------12-------------
B-----8-------8---7~----------------7---9-----10----12------------------
G-6---------------7~--------------------9-------------------------------
D-7------------------------------------------------------11-------------
A-----------------------------------------------------------------------
D-----------------------------------------------------------------------


20141214

THE BEAUMONT RAG TAB (FLATPICKING COVER BY SHANE BUMGARNER)

The original video title says: Flatpicking The Beaumont Rag.
Great song played with two acoustic guitars.
See the TAB under the video.


THE BEAUMONT RAG FLATPICKING TAB

PDF >>

Intro

e-----------------------------0-----------------------------------------
B---------------------1---3---------------------------------------------
G-----------------------------------------------------------------------
D-----------------------------------------------------------------------
A-2h3-3-3-3---3-3-3-----------------------------------------------------
E-----------------------------------------------------------------------


Part 1

  G                               C
e-1-3-1-0---0-----------------------0---0-------------------------------
B---------3---3-1---0---0---------4---4---1-----1-----------------------
G-----------------3---3---0---0-2-----------2-0---2-0---------0---------
D-----------------------------------------------------2-0---------------
A---------------------------------------------------------3-------------
E-----------------------------------------------------------------------

  G                               C
e-----------------------------------------------------------------------
B-----------------------------------------------------------------------
G-------0---2-0---------0---2-0---------------0-----------0---0---------
D-0-2-3-----------0-2-3-----------------0-2-3-----------0---------------
A---------------------------------3-2-3-----------3-2-3-----------------
E-----------------------------------------------------------------------


20141207

THE CHANTAYS CRYSTAL T TAB (COVER BY THE DUO-TONES)

The Duo Tones cover Crystal T from the band called The Chantays.
Great song from California beach. Attention! The TAB covers the original acoustic album version but the guys play it almost note-for-note.


THE CHANTAYS CRYSTAL T TAB

PDF >>

Intro

  Am                                  Dm
e-----------------------------------------------------------------------
B-----------------------------------------------------------------------
G-----------------------------------------------------------------------
D-------2--------------------------------3------------------------------
A-3-2-3-----0----------------------3-2-3-----0--------------------------
E-----------------------------------------------------------------------

    Am                Dm              E
e-----------------------------------------------------------------------
B-----------------------------------------------------------------------
G-----------------------------------------------------------------------
D-------2-------------3-----2h3p2-0-------------------------------------
A-3-2-3-------3---0-------------------2---------------------------------
E---------------------------------------0-----0-1-3-1-0-----------------

  Am                               Dm
e-----------------------------------------------------------------------
B-----------------------------------------------------------------------
G-----------------------------------------------------------------------
D-------2--------------------------------3------------------------------
A-3-2-3-----0----------------------3-2-3-----0--------------------------
E-----------------------------------------------------------------------


20141130

WYCLEF JEAN ERIC CLAPTON WONDERFUL TONIGHT TAB (SOLOS PLAYED LIVE IN CARNEGIE HALL)

Great version of Wonderful Tonight played by Wyclef Jean and Eric Clapton live at Carnegie Hall. Nice and easy guitar playing with the special Fender Stratocaster.
See all the lead guitar parts TAB under the video.


WYCLEF JEAN ERIC CLAPTON WONDERFUL TONIGHT TAB

PDF >>

Intro solo (0:27)

e-----------------------------------------------------------------------
B-----10(12)-(10)(12)(10)p8.--10~-----------------------8h10p8~---------
G-7.------------------------------------------------7-9-----------------
D-----------------------------------------------------------------------
A-----------------------------------------------------------------------
E-----------------------------------------------------------------------


e-----------------------------------------------------------------------
B-----8.--10(12).--(12)(10)p8-----8~------10-8---8~--10.--8~----\-------
G-7-9-------------------------9.------9.-------9------------------------
D-----------------------------------------------------------------------
A-----------------------------------------------------------------------
E-----------------------------------------------------------------------


e-----------------------------------------------------------------------
B-----10(12)-(10)(12)(10)p8---10~---------------------------------------
G-7--------------------------------------7.-----------------------------
D-----------------------------------------------------------------------
A-----------------------------------------------------------------------
E-----------------------------------------------------------------------

THE ROLLING STONES DEAD FLOWERS TAB (MAIN SOLO PART)

Brilliant Keith Richards guitar solo on the '71 album in the middle of Dead Flowers.
There are some cool lead parts throughout the whole song, the main solo is at 2:35.
The great thing is that Keith Richards only uses one pentatonic scale.
See the solo TAB under the video.


THE ROLLING STONES DEAD FLOWERS SOLO TAB

PDF >>

2:35
        D                       A             G                  D
e------------------7----------------------------------------------------
B--------------------10-----------------------10------------------------
G-----7-9(11)-----------(11)(9)-----------7------(11)(9)p7-9-7---7~-----
D-7h9---------------------------------7h9---9------------------9--------
A-----------------------------------------------------------------------
E-----------------------------------------------------------------------

                                      A
e---------10------------------------------------------------------------
B------------10(12)---10-8-10-------------------------------------------
G-----7-----------------------9(11)---7---7-7~--------------------------
D-7h9---9-------------------------------9-------------------------------
A-----------------------------------------------------------------------
E-----------------------------------------------------------------------

        G                      D
e-----------------------------------------------------------------------
B-------10--------------------------------------------------------------
G-----7----(11)(9)p7-9-7---7~-------------------------------------------
D-7h9--------------------9----------------------------------------------
A-----------------------------------------------------------------------
E-----------------------------------------------------------------------


20141124

TIESTO ADAGIO FOR STRINGS TAB (FINGERSTYLE COVER BY ROBERT HEDENBORG)

The original Adagio For Strings melody was written by Samuel Barber.
There is a great fingerstyle guitar arrangement played by Robert Hedenborg.
See the TAB under the video.



TIESTO ADAGIO FOR STRINGS TAB

PDF >>

Part 1

e-5-------5---4---5---7---4---5---7---5---7---8-------------------------
B-6-------5---5---5---5---5---5---5---5---5-----------------------------
G-----------------------------------------------------------------------
D-0---------------------------------------------------------------------
A-----------------------------------------------------------------------
E---------0---------------0---------------------------------------------


e------7---8----7----8----10--------------------------------------------
B-10-------10---10---10----------12-----------10------------------------
G-----------------------------------------------------------------------
D-----------------------------------------------------------------------
A-8--------8---------8-----------10-------------------------------------
E-----------------------------------------------------------------------


e-----------------------------------------------------------------------
B---------------------0-----------0-------0---1-------------------------
G-2-------2---1---2-------1---2-------2---------------------------------
D-----------------------------------------------------------------------
A-5---5-----------------------------------------------------------------
E---------0-------0---0---0---0---0---0---0---0-------------------------


20141118

DAVID WAYNE HOTEL CALIFORNIA TAB (ACOUSTIC GUITAR COVER)

David Wayne plays a cool live acoustic guitar cover of Hotel California (The Eagles).
He plays the song in the original key.
See the TAB under the video.



DAVID WAYNE HOTEL CALIFORNIA TAB

GP5 + GP6 + PDF >>

Intro

e-777---------------7-----------------6---------9p6---6-----------------
B-777---------7---------------------------7-----------------------------
G-777---7-------7-----------7---7h9---------6---------------------------
D-999-----9---------------9-------------------8-----8-------------------
A-999-------9-----9-----------------------------------------------------
E-777-------------------7-----------------------------------------------


e-5---5-----7p5---5-------------------------------7---------------------
B-5-----5-------------5---------------------7---------------------------
G-6---------------------6-----6-------7-------7-------------------------
D-7-------7-----7---------------0-------6-------------------------------
A-------------------------7-------7-------7-----7-----------------------
E-----------------------------------------------------------------------


e--7-7-7----------------7-------------------10--------------------------
B--8-8-8----------8---------8-----------------7---7---------7-------7---
G--7-7-7---7--------7---------7-----7.--------------7---------7-------7-
D--9-9-9-----9------------------7h9-----7-------7-----7-7---------------
A-101010-------10----10-----------------------------------------9-------
E-----------------------------------------------------------------------



20141115

CAT EYE AUTUMN LEAVES TAB (LEAD GUITAR PARTS)


Finally found the name of the song I discovered earlier in a great mix by Tekiu.
There are some great lead guitar parts at 3:22, at 4:13 and then later at 5:04.
See the TAB of these brilliant guitar solos under the video.



CAT EYE AUTUMN LEAVES TAB

PDF >>

Solo at 3:22

e---8-10-11.--10-8.-----------------------------------------------------
B-8------------------11.--13~-------------8-11.--9-8.--11.--------------
G---------------------------------------8-------------------8h10~-------
D------------------------------------10---------------------------------
A-----------------------------------------------------------------------
E-----------------------------------------------------------------------


e-----------------------------------------------------------------------
B-----------------------------------------------------------------------
G------8.--8------------------------------------------------------------
D-8h10-------10----------8.--8------------------------------------------
A-------------------8h10-------8~---------------------------------------
E-----------------------------------------------------------------------


e---8-10-11.--10-8.-----------------------------------------------------
B-8------------------11.--13~-------------8-11.--9-8.--11.--------------
G---------------------------------------8-------------------8h10~-------
D------------------------------------10---------------------------------
A-----------------------------------------------------------------------
E-----------------------------------------------------------------------


20141109

SAILORS HORNPIPE TAB (FLATPICKING COVER BY SHANE BUMGARNER)

The original video title says: Flatpicking Sailors Hornpipe.
An old english tune played with two acoustic guitars.
See the TAB under the video.


SAILORS HORNPIPE TAB

PDF >>

Intro

e-----------------------------------------------------------------------
B-----------------------------------------------------------------------
G-----------------------------------------------------------------------
D-0-------0-------0-------0---------------------------------------------
A-3/5---5-5---5-5-5---5-5-5---------------------------------------------
E-----------------------------------------------------------------------


Guitar 1
      D                               E               A       
e-------------------------------2-0---0-----------0---------------------
B-3-2-3-------------------3-2-3-----3---------------3-2-0---------------
G-----------------2-0---2---------------------------------2-1-2---------
D---------0---0-4-----4-------------------2.--2-------------------------
A-----------------------------------------------------------------------
E-----------------------------------------------------------------------

      D       G       A       D       A               D
e-----------------------------------------------------------------------
B-0-2-3-2-0---0-------------------------------------------3.--3---------
G-----------2---2-0---0---------------------------0-------2.--2---------
D-------------------4---4-2-0-2-0-----------0-2-4---2-4---0.--0---------
A---------------------------------4-2-0-2-4-----------------------------
E-----------------------------------------------------------------------


20141102

AER ROOM TO BREATHE TAB

Aer - Room To Breathe is not a typical guitar song but starts with a brilliant lick that follows up throughout the whole song. 3 guitar lines can be heard: 1 with the main melody, a 2nd that only hits the background chord sometimes and a 3rd line later with melody 2.
See the TAB under the video.



AER ROOM TO BREATHE TAB

PDF >>

Main melody

e-----------------------------------------------------------------------
B------9h10p9--------------------------------------12.------------------
G-9h11----------11-9------------------9-11-11/13------------------------
D--------------------11-------------------------------------------------
A-----------------------------------------------------------------------
E-----------------------------------------------------------------------

(Background guitar)
e-----------------------------------------------------------------------
B----------(9)----------------------------------------------------------
G----------(9)----------------------------------------------------------
D----------(11)---------------------------------------------------------
A-----------------------------------------------------------------------
E-----------------------------------------------------------------------


e-----------------------------------------------------------------------
B-----------------------------------------------------------------------
G-9-11-11/13-------11---------------------------------------------------
D-----------------------------------------------------------------------
A-----------------------------------------------------------------------
E-----------------------------------------------------------------------


20141026

MIRAI NIKKI KUUSOU MESOROGIWI TAB (GUITAR COVER BY KIKAHO)

Mirai Nikki - Kuusou Mesorogiwi covered and arranged by KiKaHo.
Great headbanger riffs in half-step down tuning and a brilliant solo.
(the "re-upload" video is in standard tuning)
Download the Guitar Pro Tab below.


MIRAI NIKKI KUUSOU MESOROGIWI TAB                     

GP5 + GP6 + PDF >>

#1

D#----------------------------------------------------------------------
A#----------------------------------------------------------------------
F#----------------------------------------------------------------------
C#----------------------------------------------------------------------
G#----------------------------------------------------------------------
D#-0-0-3-0-0-5-0-6-0-5-0-3-0-0-5---0-0-3-0-0-5-0-0-6-0-0-5-0-0-3--------
   x x   x x   x   x   x   x x     x x   x x   x x   x x   x x

D#----------------------------------------------------------------------
A#----------------------------------------------------------------------
F#----------------------------------------------------------------------
C#----------------------------------------------------------------------
G#----------------------------------------------------------------------
D#-0-0-3-0-0-5-0-6-0-5-0-3-0-0-5---0-0-3-0-0-5-0-0-6-0-0-5-0-0-3--------
   x x   x x   x   x   x   x x     x x   x x   x x   x x   x x


#2

D#----------------------------------------------------------------------
A#----------------------------------------------------------------------
F#----------------------------------------------------------------------
C#----------------------------------------------------------------------
G#-----------------5----------------------------------------------------
D#-0---7---6---7-----8.--7---7-6---0---7---6---7---8.------7.-----------


20141015

UNCHARTED 3 DRAKE'S DECEPTION TAB (GUITAR COVER BY ASTRAVEX)

AstraVex plays a lead guitar cover of the Uncharted 3 theme.
Use distortion and delay as much as you can.
See the TAB under the video.



UNCHARTED 3 DRAKE'S DECEPTION TAB

PDF >>

e-----------------------------------------------------------------------
B--------------10/12~-----10~---------10-8-10/12~------------\\\--------
G-9-11-12~--------------------------------------------------------------
D-----------------------------------------------------------------------
A-----------------------------------------------------------------------
E-----------------------------------------------------------------------


e-----------------------------------------------------------------------
B-12(13)--------------12---10---8---10/12-10~---------------------------
G-----------------------------------------------------------------------
D-----------------------------------------------------------------------
A-----------------------------------------------------------------------
E-----------------------------------------------------------------------


e-17-19-19(20)--------19---17---15---17/19-17~--------------------------
B---------------------------------------------------15~------17~--------
G-----------------------------------------------------------------------
D-----------------------------------------------------------------------
A-----------------------------------------------------------------------
E-----------------------------------------------------------------------

20141010

SUPERCELL KIMI NO SHIRANAI MONOGATARI TAB (FINGERSTYLE GUITAR COVER BY THE FIREBLITZ)

Nice fingerstyle guitar cover played by The Fireblitz.
The song is called Kimi No Shiranai Monogatari by Supercell.
TAB under the video.



SUPERCELL KIMI NO SHIRANAI MONOGATARI TAB

PDF >>

Part 1

e-0-0-0-0---0-0-0-0-0-------------0-0-0-0-0---0-0-----------------------
B-2-------------------3-2---0-----0-------0-------5-5-3-2---------------
G-2-----------------------------2-1-------1-----------------4-----------
D-2---------------0-----------------------------------------------------
A-0---------------------------------------------------------------------
E---------------------------------0---------------2-------2---0---------


e---------------------------------0-------4-------5---4---5---7---------
B---------2-------0-------3-------0---------------7---------------------
G-2-------------------2-----------1---1-----------7---------------------
D-----2-----------0-----------0-----------------------------------------
A-0-----------0---------------------------------------------------------
E---------------------------------0-----------0---0---------0-----------


Part 2

e-5-------0---------------0-----------------------------------5---------
B-3-----------3---2-----------3---2-------5---3---2---3---5-------------
G-2---2-----2---2-----1-----1---1-----2-----------------2---------------
D-0-----0---------------------------------------------------------------
A-------------------------------------------------0---------0-----------
E-----------------0-----0---------2-----2---2---2-----------------------


20141005

KENNY CHESNEY ANYTHING BUT MINE SOLO TAB

There is a brilliant lead guitar part at 3:16 in Anything But Mine by Kenny Chesney.
The solo has been transcribed according to the official album version.
See the TAB under the video.



KENNY CHESNEY ANYTHING BUT MINE SOLO TAB

GP5 + GP6 + PDF >>

e--------------------12------------------------9------------------------
B-12(14)----------------(14)---(12)p9------------12-9-------------------
G-------------------------------------11(13)----------(13)(11)p9~-----\-
D-----------------------------------------------------------------------
A-----------------------------------------------------------------------
E-----------------------------------------------------------------------


e-----------------------------------------------------------------------
B-----------------12h14p12----------------12----------------------------
G------9h11-11/13----------13\11p9-11(13)----(13)(11)~------------------
D-9h11------------------------------------------------------------------
A-----------------------------------------------------------------------
E-----------------------------------------------------------------------


e-----------------12-----------12-----------12-----------12-----------12
B--------------12-----------12-----------12-----------12-----------12---
G-/14-14(16)---------14(16)-------14(16)-------14(16)-------14(16)------
D-----------------------------------------------------------------------
A-----------------------------------------------------------------------
E-----------------------------------------------------------------------


MY HEART WILL GO ON TAB (INSTRUMENTAL COVER BY IOXSILAN)

Ioxsilan plays a very nice instrumental cover of My Heart Will Go On (by Celine Dion).
He is using a legendary Fender Stratocaster with a tremolo bar.
Clean sound with a little reverb.
See the TAB under the video.


IOXSILAN MY HEART WILL GO ON TAB

PDF >>

Part 1

e--------<12>--------------------------<7>------------------------------
B-<12>---------------------------------------<7>------------------------
G-----------------------------------------------------------------------
D-----------------------------------------------------------------------
A-----------------------------------------------------------------------
E-----------------------------------------------------------------------


e-----------------------------------------------------------------------
B-5-------------4-/-5----------5---------7-h-9-----(10)(9)p7------------
G-----------------------------------------------------------------------
D-----------------------------------------------------------------------
A-----------------------------------------------------------------------
E-----------------------------------------------------------------------


e-----------------------------------------------------------------------
B-5-------------4-(5)-(4)-----------------------------------------------
G------------------------------4-/-6------------------------------------
D-----------------------------------------------------------------------
A-----------------------------------------------------------------------
E-----------------------------------------------------------------------