Showing posts with label hallelujah. Show all posts
Showing posts with label hallelujah. Show all posts

20170629

LEONARD COHEN HALLELUJAH TAB (MINI COVER BY JEN TRANI)

Jen Trani plays Leonard Cohen's Hallelujah in the style of Jeff Buckley.
She uses open E tuning with Capo on the 4th fret.
Download the TAB below.



JEN TRANI HALLELUJAH TAB

GP5 + GP6 + PDF >>

Intro

e---------------7--------------11~----------------7--------------11~----
B------5-h7-/9-----9.-------9------------5-h7-/9-----9.-------9---------
Ab-----------------------0---------------------------------0------------
E-----------------------------------------------------------------------
B-----------------------------------------------------------------------
E---0-----------------9---------------0-----------------9---------------


e-----------------------------------------------------------------------
B----------5.-4--0-----------5.-4--0------------------------------------
Ab------5-----------5-----5-----------5---------------------------------
E-----------------------------------------------------------------------
B-----------------------------------------------------------------------
E----5-----------------5------------------------------------------------


e----------------------------------0------------------------------------
B----------7--7-----------------7-----7---------------------------------
Ab------7--------7-----------7------------------------------------------
E-----------------------------------------------------------------------
B-----------------------------------------------------------------------
E----7--------------7--7------------------------------------------------


20150520

HANSEL PETHIG HALLELUJAH TAB (FINGERSTYLE COVER OF LEONARD COHEN'S SONG)

Hansel Pethig plays a nice fingerstyle guitar cover of Leonard Cohen's Hallelujah.
He is using standard tuning with CAPO on the 2nd.
See the TAB under the video.



HANSEL PETHIG HALLELUJAH TAB

GP5 + GP6 + PDF >>

Part 1                       CAPO on the 2nd

e---------0-----0-----------0-------------------------------------------
B---0---3-----------------------3-0-----0-------------------------------
G---------3-----3-----------------0-----0-------------------------------
D---------------------------------2-----2-------------------------------
A-----------------------------------------------------------------------
E---------------------------------------------0-------------------------


e---------0-----0-----------0-------------------------------------------
B---0---3---------------0-------3-----0-----0-----0-----0---------------
G---------3-----3---------3---3-----0-----0-----0-----0-----------------
D---------------------2-----2-----2-----2-----2-------------------------
A-----------------------------------------------------------------------
E---------------------------------------------------0-------------------


e-----------------------------------------------------------------------
B-----------------------------------------------------------------------
G-------0-----0-----0-----0-----0-----0-----0-----0---------------------
D-----2-----2-----2-----2-----2-----2-----2-----2-----------------------
A---1-----1-----1-----1-----2-----2-----2-----2-------------------------
E-----------------------------------------------------------------------