Showing posts with label happy holidays. Show all posts
Showing posts with label happy holidays. Show all posts

20131226

BILLY IDOL RUN RUDOLPH RUN TAB

There is a cool song on Billy Idol's christmas album (Happy Holidays) called  
Run Rudolph Run. Cool Chuck Berry style guitar solos ...
See the TAB below.



BILLY IDOL RUN RUDOLPH RUN TAB

PDF >>

Intro

e------7-7-7-7-7--------------------------------------------------------
B------7-7-7-7-7-9-7-----7-7-7-7-7-7------------------------------------
G-/8-------------9-7h8---7-7-7-7-7-8------------------------------------
D----------------------9-------------9----------------------------------
A-----------------------------------------------------------------------
E-----------------------------------------------------------------------


e---------7-7---------7---------7-------7-10-10'------------------------
B---------7-7-7-------7-7-------7-------7-9--9'-------------------------
G-9(11)-------9(11)-----9(11)-----9(11)---------------------------------
D-----------------------------------------------------------------------
A-----------------------------------------------------------------------
E-----------------------------------------------------------------------



e-----------------------------------------------------------------------
B-----------------------------------------------------------------------
G-----------------------------------------------------------------------
D-9-9-11-9-9-9-11-9--9-9-11-9-9-9-11-9----------------------------------
A-7-7-7--7-7-7-7--7--7-7-7--7-7-7-7--7----------------------------------
E-----------------------------------------------------------------------
  x x x  x x x x  x  x x x  x x x x  x


e-----------------------------------------------------------------------
B-----------------------------------------------------------------------
G-----------------------------------------------------------------------
D-----------------------------------------------------------------------
A-9-9-11-9-9-9-11-9--9-9-11-9-9-9-11-9----------------------------------
E-7-7-7--7-7-7-7--7--7-7-7--7-7-7-7--7----------------------------------
  x x x  x x x x  x  x x x  x x x x  x

20131209

BILLY IDOL LET IT SNOW TAB


Billy Idol made a cool X'mas album named Happy Holidays a couple of years ago.
Let it snow is one of the cool songs. Brian Tichy plays a nice guitar solo in the middle. See the chords and the solo TAB below. CAPO on the 8th fret.



BILLY IDOL LET IT SNOW TAB                                                              

PDF >>

Chords

  F       C7'    'Fdim'     Gm    'Gm maj7'    D7       G7     C7
e-----------------------------------------------------------------------
B-10------11------9---------11------11------------------12--------------
G-10------9-------7---------12------11---------11-------10-----9--------
D-10------8-------9---------12------12---------10-------12-----8--------
A-8-------10------8---------10------10---------12-------10-----10-------
E---------8------------------------------------10--------------8--------




Nice intro           (CAPO on the 8th)

e----------------8-----------------------------8------------------------
B-------------10-----10---------------------10-----10-------------------
G--------12-------------12-------------12-------------12----------------
D-----15---------------------15-----15---------------------15-----------
A-8-----------------------------8---------------------------------------
E-----------------------------------------------------------------------


e----------------8-----------------------------8------------------------
B-------------10-----10---------------------10-----10-------------------
G--------12-------------12-------------12-------------12----------------
D-----15---------------------15-----15---------------------15-----------
A-8-----------------------------8---------------------------------------
E-----------------------------------------------------------------------