Showing posts with label how to play. Show all posts
Showing posts with label how to play. Show all posts

20170527

NIR SHOR ANGELS & DEMONS TAB (EPIC GUITAR ROCK COVER)

Hans Zimmer - Angels & Demons guitar cover played by Nir Shor.
The YouTube video title says: 'EPIC GUITAR ROCK COVER'
Download the Guitar Pro 6 + GP5 and PDF files below.



ANGELS & DEMONS TAB

GP5 + GP6 + PDF >>

e------------------------------7----------------------------7-----------
B-----------------6---9---10-------------------6---9---10---------------
G---9---7---9---9----------------9---7---9---9--------------------------
D-----------------------------------------------------------------------
A-----------------------------------------------------------------------
E-----------------------------------------------------------------------
    x   x   x   x x   x   x    x x   x   x   x x   x   x    x


e------------------------------7----------------------------7-----------
B-----------------6---9---10-------------------6---9---10---------------
G---9---7---9---9----------------9---7---9---9--------------------------
D-----------------------------------------------------------------------
A-----------------------------------------------------------------------
E-----------------------------------------------------------------------
    x   x   x   x x   x   x    x x   x   x   x x   x   x    x


e-----------------------------------------------------------------------
B---12---13--------13-12--------10---12---------------------------------
G-------------9~-----------9~-------------------------------------------
D-----------------------------------------------------------------------
A-----------------------------------------------------------------------
E-----------------------------------------------------------------------


20170520

BURNS ERNST COUNTRY ROADS TAB (INSTRUMENTAL GUITAR COVER)

Burns Ernst plays (Take Me Home) Country Roads with his Fender Telecaster.
Great instrumental cover of the old John Denver song.
Download the Guitar Pro 6 + GP5 and PDF files below.



BURNS ERNST COUNTRY ROADS TAB

GP5 + GP6 + PDF >>

Verse

e-----------------------------------------------------------------------
B-----------------------------------------------------------------------
G-----------------------------------------------------------------------
D-----------------------------------------------------------------------
A-----------------------------------------------------0-----------------
E-----------0---0-0h2-------0---------------2---0-2---------------------


e-----------------------------------------------------------------------
B-----------------------------------------------------------------------
G-----------------------------------------------------------------------
D-----------------------------------------------------------------------
A-----------2---2-2h4-------2-------------------------------------------
E-----------------------------------2---2-2-----0---2--/5-5-------------


e-----------------------------------------------------------------------
B-----------------------------------------------------------------------
G-----------------------------------------------------------------------
D-----------------------------------------------------------------------
A---------------------------------------0-0-----4---4-------------------
E-----------0---0-0h2-------0-------2-----------------------------------



20170515

SCORPIONS I'M LEAVING YOU TAB (RHYTHM GUITAR LINE)


Scorpions - I'm Leaving You rhythm guitar cover played by ScorpionKing.
Download the Guitar Pro 6, GP5 and PDF files below.



SCORPIONS I'M LEAVING YOU TAB

GP5 + GP6 + PDF >>

Intro

e-----------------------------------------------------------------------
B-----------------------------------------------------------------------
G-----------------------------------------------------------------------
D-----2-0---------2-0---0---7/9-------2-0---------2-0---0---9---\-------
A---------3~----------3-----5/7-----------3~----------3-----7---\-------
E---0-----------------------------0-------------------------------------


e-----------------------------------------------------------------------
B-----------------------------------------------------------------------
G-----------------------------------------------------------------------
D-------2-0---------2-0---0---7/9-------2-0---------2-0---0---9---\-----
A-----------3~----------3-----5/7-----------3~----------3-----7---\-----
E---0-------------------------------0-----------------------------------


e-----------------------------------------------------------------------
B-----------------------------------------------------------------------
G-----------------------------------------------------------------------
D-------2-0---------2-0---0---7/9-------2-0---------2-0---0---9---\-----
A-----------3~----------3-----5/7-----------3~----------3-----7---\-----
E---0-------------------------------0-----------------------------------


20170508

GARY MOORE THE STUMBLE TAB (GUITAR PRO 6 + GP5 + PDF)


Gary Moore - The Stumble is one of the best blues guitar songs.
Download the Guitar Pro 6 + GP5 and PDF files below.



GARY MOORE THE STUMBLE TAB

GP5 + GP6 + PDF >>

Part 1

e------------------------------12-\--------7-------7--------------------
B------------------------------12-\----8.--10(12)--10(12)--10-8-10-8'---
G--------9-11-9~-------11'-----12-\-/9----------------------------------
D---9h11----------------------------------------------------------------
A-----------------------------------------------------------------------
E-----------------------------------------------------------------------


e-------------------------------7.--------------------------------12-\--
B-------------------------------7.--------------------------------12-\--
G----9----7--7------------------7.---------9-11-9~-------12-\-----12-\--
D-------9------\7--5h6---\------6.----9h11------------------------------
A-----------------------------------------------------------------------
E-----------------------------------------------------------------------


e-----------------------------------------------------------------------
B-----------------------------------------------------------------------
G-----7.--9(11)---9(11)(9)-7---7'---------------------------------------
D---9------------------------9------9--7--------------------------------
A----------------------------------------\7p5---7----5h6----------------
E---------------------------------------------7----7-----7-7~-----------


20170430

MARK KNOPFLER THE LONG ROAD TAB (BURNS ERNST INSTRUMENTAL GUITAR COVER)

The Long Road (Mark Knopfler cover) played by Burns Ernst.
Easy instrumental guitar cover.
Download the Guitar Pro 6, GP5 and PDF files below.



MARK KNOPFLER THE LONG ROAD TAB

GP5 + GP6 + PDF >>

Part 1

e-----------------------------------------------------------------------
B---------------3---------------3---------------------------------------
G---4~------2-----4~--------2-----4~------------------------------------
D-----------------------------------------------------------------------
A-----------------------------------------------------------------------
E-----------------------------------------------------------------------


e-----------------------------------------------------------------------
B---------------3---------------3---------------------------------------
G---4~------2-----4~--------2-----4~------------------------------------
D-----------------------------------------------------------------------
A-----------------------------------------------------------------------
E-----------------------------------------------------------------------


e-----------------------------------------------------------------------
B-----0-1-------------------------------0-------------------------------
G-------------------------------------2---------------------------------
D---0-------2~----------------------2-------0---------------------------
A-----------------------------------------------------------------------
E-----------------------------------------------------------------------


20170425

CHRIS CORNELL ONE TAB (U2 MUSIC WITH METALLICA LYRICS)

Chris Cornell sings "One" with a single acoustic guitar.
U2 music with Metallica lyrics.
See the TAB below.



CHRIS CORNELL ONE TAB

GP5 + GP6 + PDF >>

Intro

e---0-------0-----0-0-0-0---0-0-0-0-2-------2-----2-2-2-2---2-2-2-2-----
B---1-------1-----1-1-1-0h1-1-1-1-1-1-------1-----1-1-1-0h1-1-1-1-1-----
G---2-------2-----2-2-2-2---2-2-2-2-2-------2-----2-2-2-2---2-2-2-2-----
D---2-------2-----2-2-2-2---2-2-2-2-0-------0-----0-0-0-0---0-0-0-0-----
A---0-------0-----0-0-0-0---0-0-0-0-------------------------------------
E-----------------------------------------------------------------------


e---0-----0-0-----0-0-0-0---0-0-0---3---3-3-3---3-3-3-3-3---3-3---------
B---1-----1-1-----1-1-1-0h1-1-1-1-0-0---0-0-1---1-1-1-0-0h1-1-1-1-------
G---2-----2-2-----2-2-2-2---2-2-2-0-0---0-0-0---0-0-0-0-0---0-0-0h2-----
D---3-----3-3-----3-3-3-3---3-3-3-0-0---0-0-0---0-0-0-0-0---0-0-0h2-----
A-----------------------------------2---2-2-2---2-2-2-2-2---2-2---------
E-----------------------------------3---3-3-3---3-3-3-3-3---3-3---------


e---0-----0-0---0-0-----0-----0-0-0-2-------2-----2-----2-----2-2-2-----
B---1-----1-1---1-0h1p0-1-----1-1-1-1-------1-----0h1p0-1-----1-1-1-----
G---2-----2-2---2-------2-----2-2-2-2-------2-----------2-----2-2-2-----
D---2-----2-2---2-------2-----2-2-2-0-------0-----------0-----0-0-0-----
A---0-----0-0---0-------0-----0-0-0-------------------------------------
E-----------------------------------------------------------------------


20170420

ALELA DIANE LADY DIVINE TAB (WITH LYRICS)


Alela Diane sings Lady Divine with a single acoustic guitar.
She put the Capo on the 7th and uses standard tuning.
See the TAB below.



ALELA DIANE LADY DIVINE TAB

GP5 + GP6 + PDF >>

Intro

e-----------------------------------------------------------------------
B---------0-------0-------0-------0-------0-------0-------0-------0-----
G-----0-------0-------0-------0-------0-------0-------0-------0---------
D-------0-------0-------0-------0-------0-------0-------0-------0-------
A-----------2---------------2---------------2---------------2-----------
E---3---------------3---------------3---------------3-------------------


Verse

e-----------------------------------------------------------------------
B---------0-------0-------0-------1-------1-------1-------1-------0-----
G-----0-------0-------0-------0-------0-------0-------0-------0---------
D-------0-------0-------0-------0-------2-------2-------2-------0-------
A-----------2---------------2-------3-------3-------3-------3-----------
E---3---------------3---------------------------------------------------


e-----------------------------------------------------------------------
B---------0-------0-------0-------1-------1-------1-------1-------0-----
G-----0-------0-------0-------0-------0-------0-------0-------0---------
D-------0-------0-------0-------0-------2-------2-------2-------0-------
A-----------2---------------2-------3-------3-------3-------3-----------
E---3---------------3---------------------------------------------------


20170414

CALIFORNIA BLUE GUITAR INSTRUMENTAL TAB (ROY ORBISON)


Roy Orbison - California Blue easy instrumental guitar cover.
Download the Guitar Pro 6 + GP5 and PDF files below.



ROY ORBISON CALIFORNIA BLUE INSTRUMENTAL TAB

GP5 + GP6 + PDF >>

Part 1

  D           D                             G
e-----------------------------------------------------------------------
B-----------------------------------------------------------------------
G-----------------------------------------------------------------------
D-----------------------------------------------------------------------
A---5-7-7/9---9-----------------9-9-10----9-5---------------------------
E-----------------------------------------------------------------------

                A                         D
e-----------------------------------------------------------------------
B-----------------------------------------------------------------------
G-----------------------------------------------------------------------
D---5-5-5-----4---------------------------------------------------------
A---------------4-------------7-7-7-5-7-7/9-----------------------------
E-----------------------------------------------------------------------

              D                             G
e-----------------------------------------------------------------------
B-----------------------------------------------------------------------
G-----------------------------------------------------------------------
D-----------------------------------------------------------------------
A---5-7-7/9---9-----------------9-9-10----9-5---------------------------
E-----------------------------------------------------------------------


20170409

DEL SHANNON RUNAWAY TAB (INSTRUMENTAL GUITAR COVER)


Del Shannon - Runaway instrumental guitar cover played by MatevzB.
See the TAB under the video.



DEL SHANNON RUNAWAY INSTRUMENTAL TAB

GP5 + GP6 + PDF >>

e-----------------------------------------------------------------------
B---------------------------------5-3-----------------------------------
G-------2-------2/4---2---4-5---------------4---------------------------
D-----------------------------------------------------------------------
A-----------------------------------------------------------------------
E-----------------------------------------------------------------------


e-----------------------------------------------------------------------
B-----------------3-----------------------------------------------------
G---2-----2-4-------5~------2-------------------------------------------
D-----5-----------------------------------------------------------------
A-----------------------------------------------------------------------
E-----------------------------------------------------------------------


e-----------------------------------------------------------------------
B-----------------------------------------------------------------------
G-----------2-----2/5---4~----------------------------------------------
D---5-3---5-------------------------------------------------------------
A-----------------------------------------------------------------------
E-----------------------------------------------------------------------


20170404

BIG BILL BROONZY GLORY OF LOVE TAB (INTRO)


Big Bill Broonzy - Glory Of Love guitar cover played by Eddie.
The intro part is so cool that it worth a try.
Download the Guitar Pro 6, GP5 and PDF files below.



BIG BILL BROONZY GLORY OF LOVE TAB

GP5 + GP6 + PDF >> 

Intro 

e---------0---------------------1.----1---------------------------------
B-------1-----------1-----------0.----0-----0---------------------------
G---------------------2---0-----0.----0-------2---0---------------------
D-----------------------------------------------------------------------
A---x-----3-----3-----3-----3-----x-----x-----x-----x-------------------
E---3-----x-----x-----x-----x-----3-----3-----3-----3-------------------


e---3.----3-------------------3.----1-----------------------------------
B---1.----1-------------------1.----1-----1-----------------------------
G---0.----0-----------------------------2-----2-------------------------
D-----------------------------------------------------------------------
A-----3-----3-----3-----3-----x-----x-----x-----x-----------------------
E-----x-----x-----x-----x-----1-----1-----1-----1-----------------------


e---------0.------0-----------------------------------------------------
B---1-----1.----1-----3p1---------3.----1h3-----0-----------------------
G---0-----------------------0-----0.----0-----0-------------------------
D---------------------------0-------------------------------------------
A-----3-----3-----3-----3-----x-----x-----x-----x-----------------------
E-----x-----x-----x-----x-----3-----3-----3-----3-----------------------


20170329

SLASH PARADISE CITY INTRO TAB (MADE IN STOKE)


Slash plays a cool intro in the first 47 seconds. Paradise City - Made In Stoke.
Half-step down tuning - as usual.
Good luck!



SLASH PARADISE CITY INTRO TAB (MADE IN STOKE)

PDF >>

eb----------------------------------------3-----------------------------
Bb-----------1----------------------------3-------0h1p0-----------------
Gb--------------------------------0-------0-------0---------------------
Db-----0h2--------------------0h2---0-------------0---------------------
Ab---3-----3-----3------------------------------------------------------
Eb------------------------------------3---------------------------------


eb----------------------------------------------------------------------
Bb-----------------1----------1h3---1h3---1---0-------------------------
Gb----------------------------0-----0-------------------0---------------
Db-----------0h2--------------------------------------0-----------------
Ab-----2h3-------3----------------------------------2-------------------
Eb---3-----3--------------------------------------3---------------------


eb----------------------------------------------------------------------
Bb----------------------------------------------------------------------
Gb---0h2-0-----0--------------------------------------------------------
Db---------0h2---0---------------0h2------------------------------------
Ab-------------------------2h3------------------------------------------
Eb-----------------------3-----3----------------------------------------


20170325

BURNS ERNST BLUEING TAB


Burns Ernst plays an instrumental guitar cover of Blueing.
The original song was composed and played by Matti Luhtala.
Download the Guitar Pro 6 and PDF files below.



BURNS ERNST BLUEING TAB

GP6 + PDF >>

Intro

e-----------------------------------------------------------------------
B-----------------3---------------3-------------------------------------
G---4---------2-4---4~--------2-4---4~--------2-4-2---------------------
D---------------------------------------------------2-------------------
A-----------------------------------------------------------------------
E-----------------------------------------------------------------------


Verse

e-------------/7--7--7--5.-----3-------2h3-2----------------------------
B------0---1----------------5----------------3---------3----------------
G--2-------------------------------------------4~---------4.------------
D------------------------------------------------------------4--2~------
A-----------------------------------------------------------------------
E-----------------------------------------------------------------------


e--------------------------------------------------------3--2-----------
B--------------------------------------------------------------3--0-----
G-----------------------------------------------------------------------
D---------------5--5--5--5--5/7--4-------4h5-4-0------------------------
A--0---2---2h3-----------------------------------2----------------------
E-----------------------------------------------------------------------


20170315

MIKE HOWE A LONG WAY TO GO TAB (RE-VISITED)


Mike Howe - "A Long Way To Go" instrumental acoustic guitar song.
Capo on the 4th fret - standard tuning.
Download the Guitar Pro Tab below.



MIKE HOWE A LONG WAY TO GO TAB

GP5 + GP6 + PDF >> 

G1                         - Capo on the 4th -  
e-----------------------------------------------------------------------
B-----------------------------------------------------3---3-------3-----
G-----------------------------------------------------------------------
D-----------------------------------------------------------------------
A-----------------------------------------------------------------------
E-----------------------------------------------------------------------

G2
e---------0-------------------------------------------------------------
B-----3-----3---3---------3---------------3---------------3-------------
G-------0-----0---0---0-----0---0-----0-----0---0-----0-----0---0-------
D-----------------------2-----2---0-----0-----0---0-----0-----0---0-----
A---3---------------3---------------2---------------2-------------------
E-----------------------------------------------------------------------


G1
e-----------------------------------------------------------------------
B---3-5---5-------3-3-1---1-------1-1--3--3------3h5-3------------------
G-----------------------------------------------------------------------
D-----------------------------------------------------------------------
A-----------------------------------------------------------------------
E-----------------------------------------------------------------------


20170309

LOS LONELY BOYS HEAVEN TAB (INTRO SOLO)


Los Lonely Boys - Heaven starts with a cool guitar solo until 0:30.
Half-step down tuning and use the neck pick-up on your Fender Stratocaster.
Download the Guitar Pro 6, GP5 and PDF files below.



LOS LONELY BOYS HEAVEN TAB

GP5 + GP6 + PDF >>

Intro solo

eb---7~----7.---------8/10-10-10-10-10-10-10\8----8.--------------------
Bb---8~----8.--------10/12-12-12-12-12-12-12\10---10.-------------------
Gb----------------------------------------------------------------------
Db----------------------------------------------------------------------
Ab----------------------------------------------------------------------
Eb----------------------------------------------------------------------


eb-----12.--12.--12.--12.--12-12\10----10.------------------------------
Bb-----13.--13.--13.--13.--13-13\12-12-12.------------------------------
Gb----------------------------------------------------------------------
Db----------------------------------------------------------------------
Ab----------------------------------------------------------------------
Eb----------------------------------------------------------------------


eb---10.--10.--10.--10-10\8-----8.---10.--12.--12.--10-10-x-8--x--------
Bb---12.--12.--12.--12-12\10-10-10.--12.--13.--13.--12-12-x-10-x--------
Gb----------------------------------------------------------------------
Db----------------------------------------------------------------------
Ab----------------------------------------------------------------------
Eb----------------------------------------------------------------------


20170224

GIPSY KINGS NO VOLVERE TAB (INSTRUMENTAL GUITAR COVER)


Gipsy Kings - No Volvere instrumental guitar cover played by Tamer Zeynioglu.
Standard tuning. See the TAB under the video.



GIPSY KINGS NO VOLVERE TAB

GP5 + GP6 + PDF >>

Part 1

e--------3~-------------------3--3---2-2---0-0h2p0-----0-3.-------------
B---0--------0-----0-------0-----------------------3-3------------------
G---------------0-------0-----------------------------------------------
D-----------------------------------------------------------------------
A-----------------------------------------------------------------------
E--------0------------0----------0---------0----------------------------


e---2--------2-----------2--2~---0-0h2p0--------------2-----------------
B---------3-----------3------------------3-3~---1-1-3-------------------
G------2-----------2----------------------------------------------------
D---0-----------0-----------0--------------0----------------------------
A-----------------------------------------------------------------------
E-----------------------------------------------------------------------


e---0--------0--------0-2-3.----------------------0-2.------------------
B---------1-------------------1--------1--------3-----------------------
G------0-----------0----------------2--------2--------------------------
D---------------2----------------2--------------------------------------
A---3-------------------------0-----------0-----------------------------
E-----------------------------------------------------------------------


20170214

ZAKK WYLDE DARKEST HOUR TAB (GUITAR SOLO COVER BY GAKU)


Zakk Wylde - Darkest Hour guitar solo cover played by Gaku.
Download the GP6, GP5 and PDF files below.



ZAKK WYLDE DARKEST HOUR SOLO TAB

GP5 + GP6 + PDF >>

e--10-------9-------7---------------------------------------------------
B--------------------10-8-7-10-8-7--------------------------------------
G---------------------------------9-7-6-9-7-6---------------------------
D--------------------------------------------9-7-5-9-7-5------x-x-x-----
A-------------------------------------------------------9-7-5-x-x-x-----
E-----------------------------------------------------------------------
                    x x x x x  x xx x x x x xx x x x x xx x x 


e-----------------------------------------------------------------------
B--7----------------7---------------7--8--7--7--------------------------
G--9(11)(11)--------9(11)~~~-----------------9(11)------(11)(9)p7-9~~~\-
D-----------------------------------------------------------------------
A-----------------------------------------------------------------------
E-----------------------------------------------------------------------


e-----------------------------------------------------------------------
B--x-x-10(12)(10)(12)(10)(12)--(10)--12(14)(12)(14)(12)(14)--(12)-------
G--x-x------------------------------------------------------------------
D-----------------------------------------------------------------------
A-----------------------------------------------------------------------
E-----------------------------------------------------------------------

20170209

SOLAS JOHNNY'S GONE FOR A SOLDIER TAB (INTRO + VERSE)


Johnny's Gone For A Soldier based on the traditional Irish song, Suil a Ruin.
This version by Solas is played in Double Dropped D tuning with Capo on the 2nd fret.
Download the Guitar Pro Tab below.



SOLAS JOHNNY'S GONE FOR A SOLDIER TAB

GP5 + GP6 + PDF >>

Intro Solo

d---5-------4--5-4-------4-4\2--0---------------------------------------
B-------------------5---------------------------------------------------
G---------------------5-----------2h4-----------------------------------
D-----------------------------------------------------------------------
A-----------------------------------------------------------------------
D-----------------------------------------------------------------------


d-----------------0h2--5-3\2--0-----0-----------------------------------
B---------------------------------5-------------------------------------
G---4\2-0---0h2h4-----------------------0-------------------------------
D-----------------------------------------------------------------------
A-----------------------------------------------------------------------
D-----------------------------------------------------------------------


d---5--4-----------------------5--4-------------------------------------
B---------5--6/7--7\5--3-------------5----------------------------------
G-------------------------3/4-------------------------------------------
D-----------------------------------------------------------------------
A-----------------------------------------------------------------------
D-----------------------------------------------------------------------


20170204

SNATAM KAUR RA MA DA SA TAB (ACOUSTIC GUITAR)


Snatam Kaur - Ra Ma Da Sa relaxing meditation mantra.
Minimal - but very nice - guitar playing in the background from about 0:40 on.
Download the PDF and GP files below.



SNATAM KAUR RA MA DA SA TAB

GP5 + GP6 + PDF >>

Verse

e---------------3-----------------------3-------------------------------
B-----------3-------3---------------3-------3---------------------------
G-------5---------------5-------5---------------5-----------------------
D---5-----------------------5-------------------------------------------
A-----------------------------------------------------------------------
E-----------------------------------------------------------------------


e-------------3-----------------------3-----------------------3---------
B---------3-------3---------------3-------3---------------3-------3-----
G-----5---------------5-------5---------------5-------5---------------5-
D-------------------------5-----------------------5---------------------
A-0---------------------------------------------------------------------
E-----------------------------------------------------------------------


e---------------3-----------------------3-------------------------------
B-----------3-------3---------------3-------3---------------------------
G-------5---------------5-------5---------------5-----------------------
D---5-----------------------5-------------------------------------------
A-----------------------------------------------------------------------
E-----------------------------------------------------------------------


20170128

ROGER DYKE STREETS OF LONDON TAB (INSTRUMENTAL GUITAR COVER)

Roger Dyke plays an instrumental guitar cover of Streets of London.
Original song by Ralph McTell.
Download the Guitar Pro Tab below.



ROGER DYKE STREETS OF LONDON TAB

GP5 + GP6 + PDF >>

#1

e---13/14---14~----14-12-10.---9~---------------------------------------
B---14/15---15~----15-14-12.--10~---------------------------------------
G-----------------------------------------------------------------------
D-----------------------------------------------------------------------
A-----------------------------------------------------------------------
E-----------------------------------------------------------------------


e---6/7---7~----7-5-3---3/5~--------------------------------------------
B---7/8---8~----8-7-5---5/7~--------------------------------------------
G-----------------------------------------------------------------------
D-----------------------------------------------------------------------
A-----------------------------------------------------------------------
E-----------------------------------------------------------------------


e---13/14---14~----14-12-10.---9~---------------------------------------
B---14/15---15~----15-14-12.--10~---------------------------------------
G-----------------------------------------------------------------------
D-----------------------------------------------------------------------
A-----------------------------------------------------------------------
E-----------------------------------------------------------------------



20170124

MICHAEL MUCKLOW RAIN TAB (RELAXING ACOUSTIC GUITAR SONG)


Michael Mucklow - Rain - relaxing acoustic guitar song.
From the album - Silent Voices.
See the TAB under the video.


MICHAEL MUCKLOW RAIN TAB

GP5 + GP6 + PDF >>

Part 1

e------------------0--------------------0-------------------------------
B------------0--------0--------0-----------0----------------------------
G---------6--------------6--------6-----------6-------------------------
D------6--------6--------------------6-----------6----------------------
A---4-----------------------4-------------------------------------------
E-----------------------------------------------------------------------


e------------------------0----------------------------------------------
B---5-/7-----------7-----------7--------7-p0-h4-p0----------------------
G------------8--------------------8-------------------------------------
D-----------------------------------------------------------------------
A---------9-----9-----9-----9--------9----------------------------------
E---0-------------------------------------------------------------------


e------------------0--------------------0-------------------------------
B------------0--------0--------0-----------0----------------------------
G---------6--------------6--------6-----------6-------------------------
D------6--------6--------------------6-----------6----------------------
A---4-----------------------4-------------------------------------------
E-----------------------------------------------------------------------