Showing posts with label how to play. Show all posts
Showing posts with label how to play. Show all posts

20170917

VELVET REVOLVER WISH YOU WERE HERE TAB (LIVE INTRO SOLO BY SLASH)

Velvet Revolver - Wish You Were Here live version with a great Slash intro.
The intro solo is about 0:23 - 1:39 played on a double guitar.
Half step-down tuning.



VELVET REVOLVER WISH YOU WERE HERE TAB (INTRO SOLO)

PDF >>

 0:23 - 1:39

eb---10------10------10------10--------------10------10-----------------
Bb---10h12---10h12---10h12---10h12-----------10h12---10h12---10---------
Gb----------------------------------------------------------------------
Db----------------------------------------------------------------------
Ab----------------------------------------------------------------------
Eb----------------------------------------------------------------------


eb----------------------------------------------------------------------
Bb---10.--10--------10--------------------------------------------------
Gb---9.---9h11---11-----------------------------------------------------
Db-------------0--------------------------------------------------------
Ab----------------------------------------------------------------------
Eb----------------------------------------------------------------------


eb-------10------10-----------------------------------------------------
Bb-------10h12---10h12---10---10-------10---10---\----------------------
Gb-----------------------9----9h11-----9h11-9----\----------------------
Db---0------------------------------------------------------------------
Ab----------------------------------------------------------------------
Eb----------------------------------------------------------------------


20170912

THE DAKOTAS MAGIC CARPET TAB (INSTRUMENTAL GUITAR COVER BY JOHN MASON)


The Dakotas - Magic Carpet instrumental guitar cover by John Mason.
Download the Guitar Pro 6 tab and the PDF below.



THE DAKOTAS MAGIC CARPET TAB

GP5 + GP6 + PDF >>

Part 1

e---0-------------------------------0-----------------------------------
B---0-------------------------------0---------------2-------4-----------
G---0-------------------------------0---------------2-------4-----------
D---2-------------------------------2---------------2-------4-----------
A---2-------------------------------2---------------0-------2-----------
E---0-------------------------------0-----------------------------------


e-----------------------------------------------------------------------
B-----------------------------------------------------------------------
G---------------0---4---2-----------------------------------------------
D-------2-----2-----------------4-----0-2~------------------------------
A---2-------------------------------------------------------------------
E-----------------------------------------------------------------------


e-----------------------------------------------------------------------
B-----------------------------------------------------------------------
G---------------0---4---6~------7-----6-4~------------------------------
D-------2-----2---------------------------------------------------------
A---2-------------------------------------------------------------------
E-----------------------------------------------------------------------


20170906

WILLIE NELSON BANDERA TAB (RED HEADED STRANGER 1975)

Willie Nelson - Bandera nylon guitar solo parts from the album Red Headed Stranger
There is an intro solo part then later a little solo while the beautiful harp playing and at the end there is the outro solo part that's very similar to the intro solo.
Download the Guitar Pro and PDF files below.


WILLIE NELSON BANDERA TAB

GP5 + GP6 + PDF >>

Intro solo

e---1---2---3~------3-3-3~------3-3-3~------3-3-3~---2---1--------------
B-----------------------------------------------------------------------
G---2---3---4~------4-4-4~------4-4-4~------4-4-4~---3---2--------------
D-----------------------------------------------------------------------
A-----------------------------------------------------------------------
E-----------------------------------------------------------------------


e-----0-------------0-----------0-----------3---------------------------
B-------1---------0---0-------1---1-------3---3-------------------------
G---0-----0--------1----1------2----2----3-3----------------------------
D-----------2-------------2--2--------2---------------------------------
A-------------3--2----------0-------------------------------------------
E---------------0-----------------------3-------3-2---------------------


e-----------------------------------------------------------------------
B-------1~----1.-1~--3-----5\-1~-------1-1-1---3---5\-1-----------------
G-------------------------------------------------------0---------------
D-----------------------------------------------------------------------
A-----------------------------------------------------------------------
E---1-------------------------------------------------------------------


20170901

JOHNNY RIVERS ROCKIN PNEUMONIA TAB (GUITAR SOLO)


Michael Gregory plays a great cover Rockin Pneumonia guitar solo.
Originally the solo is played by Dean Parks from Johnny Rivers' band.
Download the TAB in Guitar Pro 6 and in PDF.



JOHNNY RIVERS ROCKIN PNEUMONIA SOLO TAB

GP5 + GP6 + PDF >>

e----------8------------------------------------------------------------
B-------------11(13)~~~-------------------------------------------------
G------/9---------------------------------------------------------------
D-----------------------------------------------------------------------
A-----------------------------------------------------------------------
E-----------------------------------------------------------------------


e-----------------------------------------------------------------------
B---8(10).--8.--8.--(10).--8.--8~---------------------------------------
G---------------------------------------7(9).--(9)(7)-p5----------------
D---------------------------------------------------------5~------------
A-----------------------------------------------------------------------
E-----------------------------------------------------------------------


e-----------------------------------------------------------------------
B-----------------------------------------------------------------------
G--------5.--5--------7(9)-----(7)--7.----------------------------------
D---5/7---------5--5----------------------------------------------------
A-----------------------------------------------------------------------
E-----------------------------------------------------------------------


20170829

ANDRES SEGOVIA MEXICAN FOLKSONG TAB (GP6 + GP5 + PDF)


Andrés Segovia plays Mexican Folksong - brilliant classical guitar playing.
Download the TAB below.



ANDRES SEGOVIA MEXICAN FOLKSONG TAB

GP5 + GP6 + PDF >>

Part 1

e-----7--4--0--5--------0--4--------------------------------------------
B-----5--4--------7--4--0--5--------------------------------------------
G-----4-----7--6--5--4--------------------------------------------------
D--------------------------6--4-----------------------------------------
A--------------------------------7-p6--4--------------------------------
E-----0--------0--------0-----------------------------------------------


e-----0--0--4--7--4--0-----2--------------------------------------------
B-------------------------5---4--2--4-----------------------------------
G------------------------4-------------3-/4-----------------------------
D-----------------4--6--------------------------------------------------
A-----2--4--6--7--------2-----------------------------------------------
E-----0-----------------------------------------------------------------


e-----2--2--0--------0--2-/7------------------------9--\----------------
B-----4--4-----4--4-----0------------6--7--8--9----10--\----------------
G-----2--2--0--2--2-----2------------7--8--9--10--11---\----------------
D--------------4--4--2----------------------------9----\----------------
A-----2-----------------2-----------------------------------------------
E-----------------------------------------------------------------------


20170821

AUTUMN LEAVES TAB (CLASSICAL GUITAR COVER BY NATHALIE JOST)


Autumn Leaves classical guitar cover played by Nathalie Jost
Download the tab below.



AUTUMN LEAVES FINGERSTYLE TAB

GP6 + GP5 + PDF >>

Part 1

e-----------1----------------------------------0------------------------
B------0-1------------3---1--0--------------0---------------------------
G---2-------------2----------------0------2-----------------------------
D-------------0---------------------------------------------------------
A-----------------------------------------------------------------------
E------------------------------3-------3--------------------------------


e--------------0---------0----------------------------------------------
B-------1---0----0-------1-----------3----------------------------------
G--------------------2----------0-2-------------------------------------
D----------------------------3------------------------------------------
A---3-------2--------0--------------------------------------------------
E-----------------------------------------------------------------------


e-----------------------------------------------------------------------
B--------------3--------------------------------------------------------
G-------2--------2--1---------------------------------------------------
D-------------------------2---------------------------------------------
A-----------------------------------------------------------------------
E---1-------1---------0-------0--2-4------------------------------------


20170812

ADUNBEE IN DREAMS TAB (LORD OF THE RINGS THEME GUITAR COVER)

Adunbee plays In Dreams - Lord of the Rings theme guitar cover.
She plays it in Dropped-D tuning.
Download the tab below.



ADUNBEE IN DREAMS TAB

GP5 + GP6 + PDF >>

(Dropped D tuning)

e-----------------------------------------------------------------------
B-----------------------------------------------------------------------
G-----------5-----------------------------------------------------------
D---3-5-7-------7------5h7p5p3------------------------------------------
A---3----------------------------3--------------------------------------
D---3--------------------------------3----------------------------------


e-----------------------------------------------------------------------
B-----------------------------------------------------------------------
G-----5-7-----10-9------------------------------------------------------
D---7---0-----8------10---7-----7h8p7p0-5~------------------------------
A---0---x-----8-----------8-------------3~------------------------------
D---0---8-----8---------------------------------------------------------


e-----------------------------------------------------------------------
B-----------------------------------------------------------------------
G-----------5-----------------------------------------------------------
D---3-5-7-------7------5h7p5p3------------------------------------------
A---3----------------------------3--------------------------------------
D---3--------------------------------3----------------------------------


20170807

BEE GEES HOW DEEP IS YOUR LOVE TAB (FINGERSTYLE GUITAR COVER BY GIAN PIERO FERRINI)

Gian Piero Ferrini plays a great fingerstyle guitar cover of How Deep Is Your Love.
Dropped D tuning with CAPO on the 2nd fret. (original song by Bee Gees)
Download the Guitar Pro 6 and PDF files below.



GIAN PIERO FERRINI HOW DEEP IS YOUR LOVE TAB

GP6 + PDF >>

Intro

e-----------------------------------------------------------------------
B-----------------------0-------------------------------0---------------
G-----------0--h2---------------0---------------2---------------0-------
D-------0-----------0-------0-----------0--h4-------4-------4-----------
A-----------------------------------------------------------------------
D---5-------------------------------5-----------------------------------


e-----------------------------------------------------------------------
B---------------0-------------------0h1-----------------1---------------
G-----------0-----------0-------0---0-----------0-----------------0-----
D-------2-----------2-------2-------2-------2-------2-------0h2---------
A---3-------------------------------0-----------------------------------
D-----------------------------------------------------------------------


e-----------------------------------------------------------------------
B-----------------------0-------------------------------0---------------
G-----------0--h2---------------0---------------2---------------0-------
D-------0-----------0-------0-----------0--h4-------4-------4-----------
A-----------------------------------------------------------------------
D---5-------------------------------5-----------------------------------

 

20170801

STEVE TERREBERRY CARELESS WHISPER TAB (SOLO)


Steve Terreberry plays an instrumental cover of Careless Whisper by George Michael.
There is a cool solo at 2:40 and it goes until about 3:30.
Download this guitar solo tab below.



STEVE TERREBERRY CARELESS WHISPER SOLO TAB

GP5 + GP6 + PDF >>

Solo 

e---20(22)-----20(22)-----20(22)~~~-----------------(22)(20)-17-18------
B-----------------------------------------------------------------------
G-----------------------------------------------------------------------
D-----------------------------------------------------------------------
A-----------------------------------------------------------------------
E-----------------------------------------------------------------------


e---20-18-17--17-18-20-18-17--17-18-20-18-17--17-18-20-18-17--17-18-----
B-----------20--------------20--------------20--------------20----------
G-----------------------------------------------------------------------
D-----------------------------------------------------------------------
A-----------------------------------------------------------------------
E-----------------------------------------------------------------------


e---20-18-17--17-18-20-18-17--17-18-20-18-17--17-18-20-18-17--17--------
B-----------20--------------20--------------20--------------20--20------
G-----------------------------------------------------------------------
D-----------------------------------------------------------------------
A-----------------------------------------------------------------------
E-----------------------------------------------------------------------

20170727

THE BEATLES IN MY LIFE TAB (INSTRUMENTAL GUITAR COVER BY ROBERTO BARALLOBRE)


Roberto Barallobre plays a great instrumental guitar cover of In My Life by The Beatles.
Download the TAB below.



THE BEATLES IN MY LIFE INSTRUMENTAL TAB

GP5 + GP6 + PDF >>

Part 1

e-----------------------------------------------------------------------
B-----------------------------------------------------------------------
G---0-------0-2-5-4~------------------0-------0-2-5-4~------------------
D-----------------------------------------------------------------------
A-----------------------------------------------------------------------
E-----------------------------------------------------------------------


e-----------------------------------------------------------------------
B---------------------------8-------------------------------------------
G---------5---5---7---7/9-----9~----------------------------------------
D---5-5h7---------------------------------------------------------------
A-----------------------------------------------------------------------
E-----------------------------------------------------------------------


e-----------------------------------------------------------------------
B-------------------------------4/5-5~----------------------------------
G---7h9-7~---\-5-5~-----------------------------------------------------
D-----------------------6/7-5-------------------------------------------
A-----------------------------------------------------------------------
E-----------------------------------------------------------------------

20170721

KALEI GAMIAO SILENT NIGHT TAB (UKULELE COVER)


Kalei Gamiao plays a fantastic instrumental ukulele cover of Silent Night.
Download the Guitar Pro 6 + GP5 and PDF files below.
Part 2 starts about 1:07 in the video.



KALEI GAMIAO SILENT NIGHT UKULELE TAB

GP5 + GP6 + PDF >>

Part 2

A-------------------<12>------------------------------------------------
E---3<15>------------------3<15>-------<12>-----------0-----------------
C---------------0---------------------------------0---------------------
G-----------0----------------------0----------0-----------0---0---------


A-------------------<12>--------------------------------------5---------
E---3<15>------------------3<15>-------<12>-----------0-----------------
C---------------0---------------------------------0---------------------
G-----------0----------------------0----------0-----------0-------------


A---5---------------5-------2---------------0---2/3---------------------
E---------------3-----------1-----------1-------------------------------
C-----------5---------------2-------2-----------------------------------
G-------0---------------0---0---0---------------------------------------


A---3---------------3---------------------------------------------------
E-----------0---------------3-----------3-------------------------------
C-----------------------------------0-----------------------------------
G-------0-------0-------0-------0-----------0---0-----------------------


20170717

THE HEIGHTS HOW DO YOU TALK TO AN ANGEL TAB (GUITAR SOLO)


The guitar solo starts between 2:17 and 2:40 in How Do You Talk To An Angel.
Download the Guitar Pro 6 tab and the PDF file below.



THE HEIGHTS HOW DO YOU TALK TO AN ANGEL SOLO TAB

GP5 + GP6 + PDF >>

2:17 - 2:40

e------------17-19(21)-------(21)(19)--p17-19--(21)-19~~~---------------
B----------17-----------------------------------------------------------
G-------/18-------------------------------------------------------------
D-----------------------------------------------------------------------
A-----------------------------------------------------------------------
E-----------------------------------------------------------------------


e--------21.-22.-22(24)----22(24)----22(24)~~~--------------------------
B---17------------------------------------------------------------------
G-----------------------------------------------------------------------
D-----------------------------------------------------------------------
A-----------------------------------------------------------------------
E-----------------------------------------------------------------------


e---22--21--19--21(22)---(21)-19--\17-19(21)----(19)~--\----------------
B-----------------------------------------------------------------------
G-----------------------------------------------------------------------
D-----------------------------------------------------------------------
A-----------------------------------------------------------------------
E-----------------------------------------------------------------------


20170712

THE VENTURES SAN ANTONIO ROSE TAB (GP5 + GP6 + PDF)


The Ventures play San Antonio Rose.
Amazing instrumental lead guitar playing.
Download the TAB below.



THE VENTURES SAN ANTONIO ROSE TAB

GP5 + GP6 + PDF >>

Part 1

e-----0---0-1-0-----------------------------------0-------0-------------
B-------4-------3-1p0-----------------------0-------0-------0.----------
G---------------------2-1-------------------1-------2-------1.----------
D-------------------------3-2-0-------------2-------3-------2.----------
A-------------------------------3-2---------2-------3-------2.----------
E-----------------------------------0.----------------------------------


Part 2

e-------5.--7/9---------5.----------------------------------------------
B---5.----------------------5------------5---------5-7.--3p2p1p0--------
G-----------------------------------/6-------7---7----------------------
D-----------------------------------------------------------------------
A-----------------------------------------------------------------------
E-----------------------------------------------------------------------


e------------------0---------------------------5------------------------
B---9----------7---x-------7---5-----------5----------------------------
G---7----------7---7---------------6---------------6--------------------
D---9-------------------------------------------------------------------
A-----------------------------------------------------------------------
E-----------------------------------------------------------------------


20170706

ANA VIDOVICH G MINOR SONATA GUITAR TAB (J. S. BACH)


Ana Vidovich plays Sonata No. 1 in G minor by J. S. Bach
The amazing part from 3:33 - 8:06 is transcribed.
Download the Guitar Pro 6 and PDF files below.



ANA VIDOVICH G MINOR SONATA GUITAR TAB

GP6 + PDF >>

Part 1

e-----------------------------------------------------------------------
B-------------------------------------------4---------------3-----------
G-------7.--7.--7.--7~--5-3-5---2.--3-------3-------2-------------------
D---------------------------------------5.--5.--5---5---3-1-3---0-------
A-----------------------------------------------------------------------
E-----------------------------------------------------------------------


e-------3-------3---3---1---1-------------------------------------------
B---4-------1-------------4-----3---4---------------------3.--3.--3-----
G-------------------3-------2-------0---------3-2-4h5---------0---------
D---1-------1-------0-------0-------------------------4-----------------
A-------------------------------------------3---0-----3-------1---------
E---------------------------------------3-------------------------------


e---------------------------6-------6---5---5---------------------------
B---3---1-------------------6-------------8---7-8---7---------8---------
G---------3-5---2.--3-------7-------5---------------5-8-7-5-------------
D---2-------4-------5---3-------0-------------------0-------8---7-5-----
A---0-------5-------------6-8-------6-----------------------------------
E-------------------3---------------------------------------------------


20170701

ACOUSTICIAN HOTEL CALIFORNIA SOLO TAB (THE EAGLES)


The Eagles - Hotel California solo part played on acoustic guitar by Acoustician.
His name is Juha Järvinen and he adds a nice improvisation at the end (~ 2:14)
Download the Guitar Pro 6 and PDF tab below.



ACOUSTICIAN HOTEL CALIFORNIA SOLO TAB

GP5 + GP6 + PDF >>

e-----------------------------------------------------------------------
B----------10h12/15~-------10h12-------------7--------------------------
G---6/11------------------------11\9~----7h9---7------------------------
D------------------------------------------------9-8~-------------------
A-----------------------------------------------------------------------
E-----------------------------------------------------------------------


e-----------------------------------------------------------------------
B-----------------------------------------------------------------------
G-----------------------------------------------------------------------
D---9-h12p9-7--/8~------------------------------------------------------
A-----------------------------------------------------------------------
E-----------------------------------------------------------------------


e-----------------------------------------10----------------------------
B-------7---------------7-----------10/12----12\10~--7-10-9~------------
G---7h9---7---------7h9---7-------7-------------------------------------
D-----------9-8-9~----------9-8-9---------------------------------------
A-----------------------------------------------------------------------
E-----------------------------------------------------------------------


20170629

LEONARD COHEN HALLELUJAH TAB (MINI COVER BY JEN TRANI)

Jen Trani plays Leonard Cohen's Hallelujah in the style of Jeff Buckley.
She uses open E tuning with Capo on the 4th fret.
Download the TAB below.



JEN TRANI HALLELUJAH TAB

GP5 + GP6 + PDF >>

Intro

e---------------7--------------11~----------------7--------------11~----
B------5-h7-/9-----9.-------9------------5-h7-/9-----9.-------9---------
Ab-----------------------0---------------------------------0------------
E-----------------------------------------------------------------------
B-----------------------------------------------------------------------
E---0-----------------9---------------0-----------------9---------------


e-----------------------------------------------------------------------
B----------5.-4--0-----------5.-4--0------------------------------------
Ab------5-----------5-----5-----------5---------------------------------
E-----------------------------------------------------------------------
B-----------------------------------------------------------------------
E----5-----------------5------------------------------------------------


e----------------------------------0------------------------------------
B----------7--7-----------------7-----7---------------------------------
Ab------7--------7-----------7------------------------------------------
E-----------------------------------------------------------------------
B-----------------------------------------------------------------------
E----7--------------7--7------------------------------------------------


20170623

THE SQUARE TRAVELERS TAB (GUITAR SOLO PARTS)


The Square (T-Square) - Travelers guitar solo cover. Solo 1 and Solo 2.
In the original song you can find these parts at 0:19 and 2:17.
Download the Guitar Pro 6, GP5 and PDF files below.



THE SQUARE TRAVELERS SOLO TAB

GP5 + GP6 + PDF >>

Solo 1   (0:19 - 1:27)

e-----------------------------8.--8h10----------------------------------
B---/10-----------8-10.--11.-------------10~----------------------------
G-----------------------------------------------------------------------
D-----------------------------------------------------------------------
A-----------------------------------------------------------------------
E-----------------------------------------------------------------------


e-----------------------------8.--8h10----------------------------------
B---/10-----------8-10.--11.-------------10~----------------------------
G-----------------------------------------------------------------------
D-----------------------------------------------------------------------
A-----------------------------------------------------------------------
E-----------------------------------------------------------------------


e-----------------------------8.--8h10----------------------------------
B---/10-----------8-10.--11.-------------10~----------------------------
G-----------------------------------------------------------------------
D-----------------------------------------------------------------------
A-----------------------------------------------------------------------
E-----------------------------------------------------------------------


20170618

DAVE MONK DREAM LOVER TAB (INSTRUMENTAL GUITAR COVER OF BOBBY DARIN'S SONG)


Dave Monk plays an instrumental guitar cover of Dream Lover by Bobby Darin.
Download the TAB below.



DAVE MONK DREAM LOVER TAB

GP5 + GP6 + PDF >>

Part 1

e-----------------------------------------------------------------------
B-------------------------5---------------------------------------------
G-------5---5-5-----5---7-----7-5~----------------------5~--------------
D-----5-----------5--------------------7-7-5-7~---7-5-7------7~---------
A-----------------------------------------------------------------------
E-----------------------------------------------------------------------


e-----------------------------------------------------------------------
B-------------------------5---------------------------------------------
G------5---5~-------5---7-----7-5~----------------------5~--------------
D----5---5--------5--------------------7-7-5-7~---7-5-7------7~---5-7-5-
A-----------------------------------------------------------------------
E-----------------------------------------------------------------------


e-----------------------------------------------------------------------
B-------------------------------------5------------5/6-6-5--------------
G---5-(4)-(5)~-------5/7-7~---------7---7-5~---------------5~-----------
D-----------------------------------------------------------------------
A---- tremolo ----------------------------------------------------------
E-----------------------------------------------------------------------


20170612

DR. VIOSSY & DIANA LONG TRAIN RUNNING TAB (FINGERSTYLE SOLO PART)

Dr. Viossy & Diana play Long Train Running by The Doobie Brothers.
One Dr.Viossy guitar, Diana's great voice and percussion. 1 step-down tuning.
Nice fingerstyle solo part around 1:44 - 2:27. Download this TAB below.



DR. VIOSSY & DIANA LONG TRAIN RUNNING TAB

GP5 + GP6 + PDF >>

Solo  (1:44 - 2:27)

d-----------------------------------------------------------------------
A---------------6.--5-----3.------------10h11--10.----10----8.----------
F---------3.--------------3.------------10-----10.----10----8.----------
C---3h5---3.----5.--5-----------3h5-----10h12---------------------------
G---3h5-x-----x---------------x-3h5-x--------10-------8-----8.----------
D-----------------------------------------------------------------------


d-----------------------------------------------------------------------
A-----8h10--------------------------------------------------------------
F-----8h10p0---3p0-5p0-6/7.----10.----12.--15p0---3p0-5p0-6/7.----------
C--------------3p0-5p0-6/7.----10.----12.--15p0---3p0-5p0-6/7.----------
G----------------------------x------x-----------------------------------
D---8-------------------------------------------------------------------


d------------------6p5p3------------------------------------------------
A------6.--5.--3.-------6p5p3-5p3---------------------------------------
F------5.--5.--3.------------6---6p5p3-5p3------------------------------
C---5h7----5.--3.---------------------5---5-5p3-----3-------------------
G----------------------------------------------5-3h5-5p3-------4/5-8----
D-------------------------------------------------------6-3h6h8---------


20170605

ROD STEWART SEEMS LIKE A LONG TIME TAB (GUITAR SOLO)


Rod Stewart - Seems Like A Long Time guitar solo about 1:40 - 2:08.
Download the Guitar Pro 6, GP5 and PDF files below.



ROD STEWART SEEMS LIKE A LONG TIME SOLO TAB

GP5 + GP6 + PDF >>

(1:40 - 2:08)

e-----------------------------------------------------------------------
B-----------------------------------------------------------------------
G-----7(9)------(9)(7)p5~------5-----------7(9)---(9)(7)p5~-------------
D---5--------------------------5h7p5.----5------------------------------
A-----------------------------------------------------------------------
E-----------------------------------------------------------------------


e-----------------------------------------------------------------------
B---8-------------------------------------------------------------------
G-----7(9)-------(9)(7)p5~---------5------------------------------------
D----------------------------------5h7--p5.-----------------------------
A-----------------------------------------------------------------------
E-----------------------------------------------------------------------


e-----------------------------------------------------------------------
B-------12-12-12-12-12-12------------12-----------10--------------------
G---/12-------------------12-----------------8/10-------10----10.-------
D---/12----12-12-12-12-------12~--12----12.--8/10----10----10-----------
A-----------------------------------------------------------------------
E-----------------------------------------------------------------------