Showing posts with label improvisation. Show all posts
Showing posts with label improvisation. Show all posts

20170701

ACOUSTICIAN HOTEL CALIFORNIA SOLO TAB (THE EAGLES)


The Eagles - Hotel California solo part played on acoustic guitar by Acoustician.
His name is Juha Järvinen and he adds a nice improvisation at the end (~ 2:14)
Download the Guitar Pro 6 and PDF tab below.



ACOUSTICIAN HOTEL CALIFORNIA SOLO TAB

GP5 + GP6 + PDF >>

e-----------------------------------------------------------------------
B----------10h12/15~-------10h12-------------7--------------------------
G---6/11------------------------11\9~----7h9---7------------------------
D------------------------------------------------9-8~-------------------
A-----------------------------------------------------------------------E-----------------------------------------------------------------------


e-----------------------------------------------------------------------
B-----------------------------------------------------------------------
G-----------------------------------------------------------------------
D---9-h12p9-7--/8~------------------------------------------------------
A-----------------------------------------------------------------------
E-----------------------------------------------------------------------


e-----------------------------------------10----------------------------
B-------7---------------7-----------10/12----12\10~--7-10-9~------------
G---7h9---7---------7h9---7-------7-------------------------------------
D-----------9-8-9~----------9-8-9---------------------------------------
A-----------------------------------------------------------------------
E-----------------------------------------------------------------------

20130321

BB KING THE THRILL IS GONE SOLO TAB - MARTY SCWARTZ IMROVISATION

Marty Schwartz teaches us The Thrill Is Gone by BB King. The reason why we've put this video here is the little improvisation solo at the beginning. He actually teaches the chords and the rhythm in the lesson. TAB of the improvisation solo below.


BB KING THE THRILL IS GONE TAB - IMPROVISATION BY MARTY SCHWARTZ


e-10'---7~--------------7'----------------------------------------------
B-------------------------------10--------------------------------------
G---------------9(11)--------------9(11)-7-9----------------------------
D--------------------------------------------9-9~-----------------------
A-----------------------------------------------------------------------
E-----------------------------------------------------------------------


e-------------------7---------------------------------------------------
B-----------------7---10p7----------------------------------------------
G-------7-9(11)------------9(11)-9-7---7-9h10p9p7---7-------------------
D---7h9------------------------------9------------9---9p7---------------
A-9-------------------------------------------------------9\7p5-7~------
E-----------------------------------------------------------------------