Showing posts with label instrumental. Show all posts
Showing posts with label instrumental. Show all posts

20170315

MIKE HOWE A LONG WAY TO GO TAB (RE-VISITED)


Mike Howe - "A Long Way To Go" instrumental acoustic guitar song.
Capo on the 4th fret - standard tuning.
Download the Guitar Pro Tab below.



MIKE HOWE A LONG WAY TO GO TAB

GP5 + GP6 + PDF >> 

G1                         - Capo on the 4th -  
e-----------------------------------------------------------------------
B-----------------------------------------------------3---3-------3-----
G-----------------------------------------------------------------------
D-----------------------------------------------------------------------
A-----------------------------------------------------------------------
E-----------------------------------------------------------------------

G2
e---------0-------------------------------------------------------------
B-----3-----3---3---------3---------------3---------------3-------------
G-------0-----0---0---0-----0---0-----0-----0---0-----0-----0---0-------
D-----------------------2-----2---0-----0-----0---0-----0-----0---0-----
A---3---------------3---------------2---------------2-------------------
E-----------------------------------------------------------------------


G1
e-----------------------------------------------------------------------
B---3-5---5-------3-3-1---1-------1-1--3--3------3h5-3------------------
G-----------------------------------------------------------------------
D-----------------------------------------------------------------------
A-----------------------------------------------------------------------
E-----------------------------------------------------------------------


20170304

PETE KORVING AVE MARIA NO MORRO TAB (GUITAR PRO 6 - PDF)


Pete Korving's instrumental guitar cover of Ave Maria No Morro.
Download the GP6 and PDF files below.



PETE KORVING AVE MARIA NO MORRO TAB

GP6 + PDF >>

Intro

e-------9-------9.----9------------------9-------9.----9----------------
B---------9---------------8~---------------9---------------8--\---------
G---9---------9-----9----------------9---------9-----9------------------
D-----------------------------------------------------------------------
A-----------------------------------------------------------------------
E-----------------------------------------------------------------------


Part 1

e-----------------------------------------------------------------------
B-----------------------------------------------------------------------
G-----------------------------------------------------------------------
D---------------------------2--2~-------222-----------2-4-2-2-----------
A---2-2-2-2--2~-------2-1-2------------------4~----------------3~-------
E-----------------------------------------------------------------------


e-----------------------------------------------------------------------
B-----------------------------------------------------------------------
G-----------------------------------------------------------------------
D---2-4-2.--------------------------------------------------------------
A----------2--2~--------222~-----2-4--4/6-\--2--2~----------------------
E-----------------------------------------------------------------------

20170224

GIPSY KINGS NO VOLVERE TAB (INSTRUMENTAL GUITAR COVER)


Gipsy Kings - No Volvere instrumental guitar cover played by Tamer Zeynioglu.
Standard tuning. See the TAB under the video.



GIPSY KINGS NO VOLVERE TAB

GP5 + GP6 + PDF >>

Part 1

e--------3~-------------------3--3---2-2---0-0h2p0-----0-3.-------------
B---0--------0-----0-------0-----------------------3-3------------------
G---------------0-------0-----------------------------------------------
D-----------------------------------------------------------------------
A-----------------------------------------------------------------------
E--------0------------0----------0---------0----------------------------


e---2--------2-----------2--2~---0-0h2p0--------------2-----------------
B---------3-----------3------------------3-3~---1-1-3-------------------
G------2-----------2----------------------------------------------------
D---0-----------0-----------0--------------0----------------------------
A-----------------------------------------------------------------------
E-----------------------------------------------------------------------


e---0--------0--------0-2-3.----------------------0-2.------------------
B---------1-------------------1--------1--------3-----------------------
G------0-----------0----------------2--------2--------------------------
D---------------2----------------2--------------------------------------
A---3-------------------------0-----------0-----------------------------
E-----------------------------------------------------------------------


20170128

ROGER DYKE STREETS OF LONDON TAB (INSTRUMENTAL GUITAR COVER)

Roger Dyke plays an instrumental guitar cover of Streets of London.
Original song by Ralph McTell.
Download the Guitar Pro Tab below.



ROGER DYKE STREETS OF LONDON TAB

GP5 + GP6 + PDF >>

#1

e---13/14---14~----14-12-10.---9~---------------------------------------
B---14/15---15~----15-14-12.--10~---------------------------------------
G-----------------------------------------------------------------------
D-----------------------------------------------------------------------
A-----------------------------------------------------------------------
E-----------------------------------------------------------------------


e---6/7---7~----7-5-3---3/5~--------------------------------------------
B---7/8---8~----8-7-5---5/7~--------------------------------------------
G-----------------------------------------------------------------------
D-----------------------------------------------------------------------
A-----------------------------------------------------------------------
E-----------------------------------------------------------------------


e---13/14---14~----14-12-10.---9~---------------------------------------
B---14/15---15~----15-14-12.--10~---------------------------------------
G-----------------------------------------------------------------------
D-----------------------------------------------------------------------
A-----------------------------------------------------------------------
E-----------------------------------------------------------------------



20170119

BURNS ERNST HOUSE OF THE RISING SUN TAB (INSTRUMENTAL GUITAR COVER)

Burns Ernst plays his own instrumental guitar cover of House of the Rising Sun.
Original song by The Animals.
See the TAB under the video.



BURNS ERNST HOUSE OF THE RISING SUN TAB

PDF >>

Part 1

 Am / C / D / F /
 Am / E / Am / E /

      Am          C            D         F
e-----------------------------------------------------------------------
B-----------------------------------------------------------------------
G-----------------------------------------------------------------------
D-----------------------------------------------------------------------
A-----0---------2-3---------/7-5---0-----0------------------------------
E---0-------------------------------------------------------------------

      Am          C            E
e-----------------------------------------------------------------------
B-----------------------------------------------------------------------
G-----------------------------------------------------------------------
D---7-7~--------7-5~----------------------------------------------------
A--------------------------7-5-7~---------------------------------------
E-----------------------------------------------------------------------

         Am          C             D             F
e-----------------------------------------------------------------------
B-----------------------------------------------------------------------
G-----------------------------------------------------------------------
D---/7-7-7~--------7-5-\-2~------2-0------------------------------------
A--------------------------------------0-----0-0-3~---------------------
E-----------------------------------------------------------------------

20170110

GEORGE HARRISON SOMETHING TAB (INSTRUMENTAL GUITAR COVER BY CAUE LOBO)

Caue Lobo plays an instrumental guitar cover of Something by George Harrison.
Sounds amazing!
Download the Guitar Pro Tab below.



GEORGE HARRISON SOMETHING TAB

GP5 + GP6 + PDF >>

Part 1

e-----------------------------------------------------------------------
B-----------------------------------------------------------------------
G------2.--(5)(4)-2.--3-------4-----------------------------------------
D-----------------------------------------------------------------------
A-----------------------------------------------------------------------
E-----------------------------------------------------------------------


e-----------------------------------------------------------------------
B-----------------------------------------------------------------------
G---4/5---5-------5~----------5---4~------------------------------------
D---------------------------5-------------------------------------------
A-----------------------------------------------------------------------
E-----------------------------------------------------------------------


e-----------------------------------------------------------------------
B-----------------------------------------------------------------------
G---5\3-3-3.--3.--5.--5/7-----5.--5-------------------------------------
D----------------------------------5h7~----------\----------------------
A-----------------------------------------------------------------------
E-----------------------------------------------------------------------


20170105

YOU'LL NEVER WALK ALONE TAB (INSTRUMENTAL GUITAR COVER BY NEVILLE WORTHINGTON)

Neville Worthington plays an instrumental guitar cover of You'll Never Walk Alone.
The original song was written by Rogers and Hammerstein.
Download the Guitar Pro 6, GP5 and PDF files below.



YOU'LL NEVER WALK ALONE INSTRUMENTAL TAB

GP5 + GP6 + PDF >>

e-----------------------------------------------------------------------
B-----------------------------------------------------------------------
G-----------------------------------------------------------------------
D---2---0--------------------2---0--------------------------------------
A---------3------------------------3------------------------------------
E-----------------------------------------------------------------------


e-----------------------------------------------------------------------
B-----------------------------------------------------------------------
G-----------------------------------------------------------------------
D---2---3-5-----------------2-----0-------------------------------------
A-----------------------------------------------------------------------
E-----------------------------------------------------------------------


e-----------------------------------------------------------------------
B-----------------------------------------------------------------------
G-----------------------------------------------------------------------
D---2-3-----------------5---3-2-----------------5---2-0-----------------
A-----------------------------------------------------------------------
E-----------------------------------------------------------------------


20161221

CELINO ROMERO LA PALOMA 2 TAB (CLASSICAL GUITAR COVER)

Celino Romero plays La Paloma 2, very nice classical guitar cover.
He is using Dropped D tuning.
Download the Guitar Pro tab below.



CELINO ROMERO LA PALOMA 2 TAB

GP5 + GP6 + PDF >>

e-----------------------------------------------------------------------
B-----------------------------------------------------------------------
G-----------------------------------------------------------------------
D------------0-----------------0-----------------0----------------------
A----------0-----0-----------0-----0-----------0-----0------------------
D--0-----------------0-----------------0--------------------------------
   x       x x   x   x       x x   x   x       x x   x


e-----------------------------------------------------------------------
B-----------------------------------------------------------------------
G-----------------------------------------------------------------------
D------------0---4-/-7~---------------------------------9~--------------
A----------0-----------------0-5.--0-------9---10-12--0-----------------
D--0-----------------0-----------------0--------------------------------
   x       x x


e-----------------------------------------------------------------------
B-----------------------------------------------------------------------
G-----------------------------------------------------------------------
D----11~---12-9-11----7---7\5--------------------------------<7>--------
A-------------------0---------------0-4.--7.-------------<7>------------
D--0-------------------------------------------<7>----------------------


20161215

DHALIF ALI A THOUSAND YEARS TAB (INSTRUMENTAL GUITAR COVER OF CHRISTINA PERRI'S SONG)

Dhalif Ali (dhalif) plays an instrumental guitar cover of A Thousand Years.
The original song is played by Christina Perri.
Download the Guitar Pro Tab below.



DHALIF ALI A THOUSAND YEARS TAB

GP5 + GP6 + PDF >>

Verse

e-----------------------------------------------------------------------
B-----------------------------------------------------------------------
G-----------------------------------------------------------------------
D---8~----------------------8~----------10/12--\10--p8------------------
A---------------------------------------x-------------------------------
E-----------------------------------------------------------------------


e-----------------------------------------------------------------------
B-----------------------------------------------------------------------
G---------------------------------------8/10--p8\7----------------------
D---8~----------------------8~----------x-------------------------------
A-----------------------------------------------------------------------
E-----------------------------------------------------------------------


e-----------------------------------------------------------------------
B-----------------------------------------------------------------------
G----------------10--p8\7-----------------------------------------------
D---8------------x------------10----/12-----7~--/-8---------------------
A---------8h10~---------------------------------------------------------
E-----------------------------------------------------------------------


20161123

THE SHADOWS SLEEPWALK TAB (ROCK ON WITH THE SHADOWS, 1961)

Sleepwalk is a legendary song from Hank Marvin and The Shadows.
The tablature follows the record on the album "Rock on with the Shadows" from 1961.
Enjoy it !



THE SHADOWS SLEEPWALK TAB

GP5 + GP6 + PDF >>

Part 1
                                tremolo
e--------------12/15~---------------------------15.---------------------
B------------13---------------------------------------------------------
G------12-14-----------------12-(11)-(12)~-----------12~----------------
D-----------------------------------------------------------------------
A-----------------------------------------------------------------------
E-----------------------------------------------------------------------

                         tremolo
e-----------------------------------------------------------------------
B---------13-13~-------8-(7)-(8)~---------------------------------------
G---12-14---------------------------------------------------------------
D-----------------------------------------------------------------------
A-----------------------------------------------------------------------
E-----------------------------------------------------------------------


e--------------------8~-------------------------------------------------
B---6-8-8h9-8~---6\5-----------8---8~-----------------------------------
G-----------------------------------------------------------------------
D-----------------------------------------------------------------------
A-----------------------------------------------------------------------
E-----------------------------------------------------------------------


20161121

THE SHADOWS SLEEPWALK TAB (LIVE FROM THE FINAL TOUR 2004)

The Shadows - Sleepwalk - live version from The Final Tour (2004)
Probably sounds better than the original record.
Lead guitar line + chords below.



THE SHADOWS SLEEPWALK TAB (LIVE)

GP5 + GP6 + PDF >>

Part 1
                            tremolo
e------------15~---15~--------------------------------------------------
B---------13------------------------------------------------------------
G---12/14----------------12-(11)-(12)~----------------------------------
D-----------------------------------------------------------------------
A-----------------------------------------------------------------------
E-----------------------------------------------------------------------

       tremolo
e-----------------------------------------------------------------------
B---13-(12)-(13)~------8---8~-------------------------------------------
G-----------------------------------------------------------------------
D-----------------------------------------------------------------------
A-----------------------------------------------------------------------
E-----------------------------------------------------------------------

                                   tremolo
e------------------------8~---------------------------------------------
B---6-8-8(9)---(8)---6\5---------8-(7)-(8)~-----------------------------
G-----------------------------------------------------------------------
D-----------------------------------------------------------------------
A-----------------------------------------------------------------------
E-----------------------------------------------------------------------


20161110

ROY ORBISON ONLY THE LONELY TAB (INSTRUMENTAL GUITAR COVER PLAYED BY ERIC)

Eric plays Only The Lonely by Roy Orbison with his Fender Stratocaster.
Great instrumental guitar cover.
See the TAB under the video.



ONLY THE LONELY INSTRUMENTAL TAB

GP5 + GP6 + PDF >>

Original intro

e-----------------------------------------------------------------------
B-----------------------------------------------------------------------
G-------0---2--------------------------------0---2----------------------
D---3------------------------------------3-----------0~----0~-----------
A---------------3~----3~------------------------------------------------
E-----------------------------------------------------------------------


e-----------------------------------------------------------------------
B-----------------------------------------------------------------------
G-------0---2---0-------------0-----------------------------------------
D---3-------------3-2-3~-------3-2~------2-3---5-5-3~-------------------
A-----------------------------------------------------------------------
E-----------------------------------------------------------------------


e-----------------------------------------------------------------------
B-----------------------------------------------------------------------
G-----------------------------------------------------------------------
D---2-3---5-5-3~--------------------------------------------------------
A-----------------------------------------------------------------------
E-----------------------------------------------------------------------



20161017

RUCY THE BRIDE AND GROOM TAB (MAIN RIFF)


Rucy plays his original song 'The Bride And Groom' Brilliant lead guitar song.
See the TAB under the video.



RUCY THE BRIDE AND GROOM TAB

GP5 + GP6 + PDF >>

Part 1

e------11---10----------------------15----13-11\-----11----h13.---------
B-------------11\-/8h11~---/13\------------------/13--------------------
G---/8----8---------------------/12----12-------------------------------
D-----------------------------------------------------------------------
A-----------------------------------------------------------------------
E-----------------------------------------------------------------------


e-----------------------------------------------------------------------
B---11(13)---(11)~----------11(13)(11)-9-8------------------------------
G---x-----------------------x--------------11\10p8----------------------
D-----------------------------------------------------------------------
A-----------------------------------------------------------------------
E-----------------------------------------------------------------------


e--------10-------10-10h12~----------\----------------------------------
B-----------------------------------------------------------------------
G---9h10----10/12-------------------------------------------------------
D-----------------------------------------------------------------------
A-----------------------------------------------------------------------
E-----------------------------------------------------------------------


20161008

ELTON JOHN CAN YOU FEEL THE LOVE TONIGHT TAB (INSTRUMENTAL GUITAR COVER BY STEPHEN PETERS)

Great instrumental guitar cover of Can You Feel The Love Tonight by Stephen Peters.
Attention: 1 step down tuning (so DGCFAD)
See the TAB under the video.



CAN YOU FEEL THE LOVE TONIGHT TAB (INSTRUMENTAL)

GP5 + GP6 + PDF >>

Part 1

D-----------------------------------------------------------------------
A-----------------------------------------------------------------------
F--------4-5---5/7\5--------------------4-5---5/7--\5~------------------
C------7---------------5-5~-----------7---------------------------------
G-----------------------------------------------------------------------
D-----------------------------------------------------------------------


D-----------------------------------------------------------------------
A-------------------6-----5h6p5-------6~-----5h6p5----------------------
F-------4-5---------------------7---5--------------7---5-7~-------------
C---7-------------5-----------------------------------------------------
G-----------------------------------------------------------------------
D-----------------------------------------------------------------------


D-----------------------------------------------------------------------
A-----------------------------------------------------------------------
F-------------------4-5---5/7-5-----------------------------------------
C---5\3\2---------7---------------5-5~----------------------------------
G---------3\2----------------------------5h7p5\3------------------------
D-------------1.-----------------------------------1--------------------



20161003

ELVIS PRESLEY LOVE ME TENDER TAB (FINGERSTYLE GUITAR COVER BY KYÖSTI RAUTIO)

Nice and easy fingerstyle guitar cover of Love Me Tender played by Kyösti Rautio.
Standard tuning!
Download the Guitar Pro Tab below.



LOVE ME TENDER FINGERSTYLE TAB

GP5 + GP6 + PDF >>

Part 1

e-------3-------3-------3-------3---------------------------------------
B-------3-------3-------3-------3---------------------------------------
G-------0-------0-------0-------0---------------------------------------
D-----------0---------------0-------------------------------------------
A-----------------------------------------------------------------------
E---3---------------3---------------------------------------------------


e-------3---2---3-/-5~------5~------3---2---0---2---3-----------3-------
B---3-------------------5-----------1-------1-----------3-------3-------
G-----------------------------------2-------2-----------0-------0-------
D-----------------------------------0-----------------------0-----------
A-----------2-------4-----------------------0---------------------------
E---3-----------------------5-----------------------3-------------------


e-------3---2---3-/-5~------5~------3---2---0---2---3-------3-----------
B---3-------------------5-----------1-------1---------3---3-------------
G-----------------------------------2-------2-----------0---------------
D-----------------------------------0-----------------------------------
A-----------2-------4-----------------------0---------------------------
E---3-----------------------5-----------------------3-------------------


20160925

FUNTWO IT'S OK TAB (FUNTWO'S ORIGINAL SONG)


Funtwo's original song called It's OK - a song written to encourage you on harder days.
Download the GP5, GP6 and PDF files below.



FUNTWO IT'S OK TAB

GP5 + GP6 + PDF >>

e-------2---x------------------------------2---x------------------------
B-------3---x-2.-2.-2.-3-------------------3---x-2.-2.-2.-0-------------
G-------------2.-2.-2.-2-------------------------2.-2.-2.-0-------------
D---0-------x--------------------------0-------x------------------------
A-----------------------------------------------------------------------
E-------------2.-2.-2.-3-------------------------2.-2.-2.-3-------------


e-----------------------------------------------------------------------
B-----------------------------------------------------------------------
G---7---7~--p6----------------------------------------------------------
D--------------7----7h9~-----p7-7---------------------------------------
A----------------9.-----------------------------------------------------
E-----------------------------------------------------------------------


e-----------------------------------------------------------------------
B-----------------------------------------------------------------------
G-----------4-4------------7/9\7.-6~------------------------------------
D---5\4/5h7-----7.-5\4/5---------------7--------------------------------
A-----------------------------------------------------------------------
E-----------------------------------------------------------------------


20160912

HANSEL PETHIG MAD WORLD TAB (FINGERSTYLE GUITAR COVER OF GARY JULES'S SONG)

Brilliant fingerstyle guitar cover of Mad World (Gary Jules) played by Hansel Pethig.
Dropped D tuning with CAPO on the 8th fret.
Download the Guitar Pro Tab below.



HANSEL PETHIG MAD WORLD TAB

GP5 + GP6 + PDF >>

Part 1

e------0----------------------------------------------------------------
B---1-----0--1-----0-----------------------------1----------------------
G---------------2-----0-------------------------------------------------
D---------2-----------2--4-----------2-----0----------------------------
A---0-----------0-----------------0-----------0-------------------------
D---------------------------0-----------0-------------------------------


e------0----------------------------------------------------------------
B---------0--1-----0--1--3----------------------------------------------
G---------------2--------0-----------0----------------------------------
D---------2-----------2-----------2-----4--2--0-------------------------
A---0-----------0--------------0-----------------3----------------------
D---------------------------0-------------------------------------------


e------0----------------------------------------------------------------
B---1-----0--1-----0-----------------------------1----------------------
G---------------2-----0-------------------------------------------------
D---------2-----------2--4-----------2-----0----------------------------
A---0-----------0-----------------0-----------0-------------------------
D---------------------------0-----------0-------------------------------



20160901

ERIC TINGSTAD DANZA MORA TAB (LEAD GUITAR LINE, GUITAR PRO)

Eric Tingstad - Danza Mora, great instrumental guitar song.
Sometimes there are 2 lead guitar lines in the song.
See the TAB under the video.



ERIC TINGSTAD DANZA MORA TAB

GP5 + GP6 + PDF >>

Part 1

e--------------------5-----------------------6---5~---------------------
B---------------5h6h8-----8----6---5----8-------------------------------
G---7~------------------------------------------------------------------
D-----------------------------------------------------------------------
A-----------------------------------------------------------------------
E-----------------------------------------------------------------------


e---6---p5--------------------------------------------------------------
B-------------8---8~-----------------------6---5~-----------------------
G--------------------------------6---h7---------------------------------
D-----------------------------------------------------------------------
A-----------------------------------------------------------------------
E-----------------------------------------------------------------------


e--------5~---------6--p5~-------------10~----------9h10p9--------------
B---5h6h8-------------------------------------------------10~-----------
G-----------------------------------------------------------------------
D-----------------------------------------------------------------------
A-----------------------------------------------------------------------
E-----------------------------------------------------------------------



20160830

FLEETWOOD MAC NEED YOUR LOVE SO BAD TAB (INSTRUMENTAL GUITAR COVER BY TERRY R)

Terry R plays Fleetwood Mac's Need Your Love So Bad.
Great instrumental guitar cover.
TAB under the video.



NEED YOUR LOVE SO BAD INSTRUMENTAL TAB


Part 1

e-----------------------------------------------------------------------
B------------10.--12(14)---(12)(14)------------(12)---------------------
G---9-/-11--------------------------------------------------------------
D-----------------------------------------------------------------------
A-----------------------------------------------------------------------
E-----------------------------------------------------------------------


e-----------------------------------------------------------------------
B------------10h12p10--10~----------------------------------------------
G---9-/-11-----------11-------------------------------------------------
D-----------------------------------------------------------------------
A-----------------------------------------------------------------------
E-----------------------------------------------------------------------


e-----------------------------------------------------------------------
B--------------10---12--10~---------------------------------------------
G---9---9/11----------11------------------------------------------------
D-----------------------------------------------------------------------
A-----------------------------------------------------------------------
E-----------------------------------------------------------------------


20160823

DAVID LOCKE WONDERFUL TONIGHT TAB (FRET-KING COUNTRY SQUIRE)

David Locke plays an instrumental guitar cover of Wonderful Tonight.
The original song is by Eric Clapton.
Download the Guitar Pro Tab below.



DAVID LOCKE WONDERFUL TONIGHT TAB

GP5 + GP6 + PDF >>

Part 1

e-----------------------------------------------------------------------
B-------10(12)-(10)p8.-10~------10(12)-(10)p8.--------------------------
G-----7----------------------------------------9~-----------------------
D-----------------------------------------------------------------------
A-----------------------------------------------------------------------
E-----------------------------------------------------------------------


e-----------------------------------------------------------------------
B------10(12)-(10)p8.-10~----12~--/13~---15(17)---(15)~---\-------------
G---7.------------------------------------------------------------------
D-----------------------------------------------------------------------
A-----------------------------------------------------------------------
E-----------------------------------------------------------------------


e-----------------------------------------------------------------------
B------10(12)-(10)p8.-10~---------10(12)-(10)p8.------------------------
G------------------------------7.----------------9~---------------------
D-----------------------------------------------------------------------
A-----------------------------------------------------------------------
E-----------------------------------------------------------------------