Showing posts with label instrumental. Show all posts
Showing posts with label instrumental. Show all posts

20171125

THE BEATLES NO REPLY TAB (INSTRUMENTAL GUITAR COVER BY ERIC)


The Beatles - No Reply instrumental guitar cover played by Eric
Download the TAB below.



THE BEATLES NO REPLY INSTRUMENTAL TAB

GP5 + GP6 + PDF >>

Part 1

e-----------------------------------------------------------------------
B-----5-6-5-------------6-5---------------------------------------------
G-----------7-5-------------7-5-4~----------------5---------------------
D---------------7~--------------------------7-5-7---7-5~----------------
A-----------------------------------------------------------------------
E-----------------------------------------------------------------------


e-----------------------------------------------------------------------
B-----5-6-5-------------6-5-----------------5---------------------------
G-----------7-5-------------7-5-4~--------------7-5~--------------------
D---------------7~------------------------------------------------------
A-----------------------------------------------------------------------
E-----------------------------------------------------------------------


e-----------3-3-3-5~------------------------3-3-3-5~--------------------
B-----------5-5-5-5~------------------------5-5-5-5~--------------------
G-----------------------------------------------------------------------
D-----------------------------------------------------------------------
A-----------------------------------------------------------------------
E-----------------------------------------------------------------------

20171110

BURNS ERNST HELP ME MAKE IT THROUGH THE NIGHT TAB (INSTRUMENTAL GUITAR COVER)

Kris Kristofferson - Help Me Make It Through The Night
Instrumental guitar cover played by Burns Ernst
Download the TAB below



BURNS ERNST HELP ME MAKE IT THROUGH THE NIGHT TAB

GP5 + GP6 + PDF >>

Part 1

e-----------------------------------------------------------------------
B----------5---6-5-----3---5.-------------------------------------------
G------5----------------------------------------------------------------
D------------------------------5~---------------------------------------
A-----------------------------------------------------------------------
E-----------------------------------------------------------------------


e-----------------------------------------------------------------------
B------5-5---5h6---5---3------------------------------------------------
G------------------------5---5~-----------------------------------------
D-----------------------------------------------------------------------
A-----------------------------------------------------------------------
E-----------------------------------------------------------------------


e-----------------------------------------------------------------------
B------3---5-5/6---5---3-6----------------------------------------------
G------------------------------4~---------------------------------------
D-----------------------------------------------------------------------
A-----------------------------------------------------------------------
E-----------------------------------------------------------------------


20171106

DJANGO REINHARDT TEARS TAB (GUITAR COVER BY SAMANTHA WELLS)

Samantha Wells plays Tears by Django Reinhardt
Nice guitar cover in standard tuning
Download the TAB below



DJANGO REINHARDT TEARS TAB

GP5 + GP6 + PDF >>

Part 1

e---------------------------------3---1---------------------------------
B---------1-----------1---------3------------5/6---5--------------------
G---------2-----------2-------2-------------4---------------------------
D-------2-----------2---------------------0-----------------------------
A---0---------0-3---------0-2-------------------------------------------
E---------------------------------------4-------------------------------


e---------------------------------3---1---------------------------------
B---------1-----------1---------3------------5/6---5--------------------
G---------2-----------2-------2-------------4---------------------------
D-------2-----------2---------------------0-----------------------------
A---0---------0-3---------0-2-------------------------------------------
E---------------------------------------4-------------------------------


e-------0-0---0-1-----1-------------------------------------------------
B-------2-2---2-2-----2-----3-------3---------3-------------------------
G-------0-0---0-0-----0-----2---------2-----2---------------------------
D-------2-----------2-------3-----3-------3-----------------------------
A---1-----------1-----------0-------------------------------------------
E---------------------------------------1---------x---------------------

20171031

SVEIN BAKKEN BARNATRO TAB (INSTRUMENTAL GUITAR COVER)


Svein Bakken plays Barnatro (Childhood Faith) - instrumental guitar cover.
Download the tablature below.



SVEIN BAKKEN BARNATRO TAB

GP5 + GP6 + PDF >>

Part 1

e-----------4------3-4---7----------------------------------------------
B-------5-------------------------------5-4--3-------7-5----------------
G---4------------------------4-----------------6-----------6---4--------
D-----------------------------------------------------------------------
A-----------------------------------------------------------------------
E-----------------------------------------------------------------------


e--------------------4--------------------------------------------------
B----------------5-------7--------4---5--5/7----------------------------
G--------4-----4------------6-------------------------------------------
D---6--7----------------------------------------------------------------
A-----------------------------------------------------------------------
E-----------------------------------------------------------------------


e---------------------------7-------------------------------------------
B---------5---5/9-----8-9--------------5-4--3-------7-5-----------------
G---4-4-------------------------4-------------6-----------6---4---------
D-----------------------------------------------------------------------
A-----------------------------------------------------------------------
E-----------------------------------------------------------------------


20171003

ELLERT NORDMARK I REMEMBER ELVIS PRESLEY TAB (INSTRUMENTAL GUITAR COVER)

Ellert Nordmark plays I Remember Elvis Presley (Danny Mirror)
Very nice instrumental guitar cover.
Download the TAB below.



ELLERT NORDMARK I REMEMBER ELVIS PRESLEY TAB

GP5 + GP6 + PDF >>

Part 1

e-----------------------------------------------------------------------
B-----------------------------------------------------------------------
G-----------------------------------------------------------------------
D-----------0-2-4-4-4-4-2-0---------------------------------------------
A---4-4-4-4-----------------4-------------------------------------------
E-----------------------------------------------------------------------
    x x x x x x x x x x x x 


e-----------------------------------------------------------------------
B-----------------------------------------------------------------------
G----------------------------------2~-----------------------------------
D-------0-2-------0-2-2/4~-----2/4--------------------------------------
A---4---------4---------------------------------------------------------
E-----------------------------------------------------------------------


e-----------------------------------------------------------------------
B-----------------------------------------------------------------------
G---1---2-2/4-2---1-----------------------------------------------------
D-------------------4-2~------------------------------------------------
A-----------------------------------------------------------------------
E-----------------------------------------------------------------------

20170912

THE DAKOTAS MAGIC CARPET TAB (INSTRUMENTAL GUITAR COVER BY JOHN MASON)


The Dakotas - Magic Carpet instrumental guitar cover by John Mason.
Download the Guitar Pro 6 tab and the PDF below.



THE DAKOTAS MAGIC CARPET TAB

GP5 + GP6 + PDF >>

Part 1

e---0-------------------------------0-----------------------------------
B---0-------------------------------0---------------2-------4-----------
G---0-------------------------------0---------------2-------4-----------
D---2-------------------------------2---------------2-------4-----------
A---2-------------------------------2---------------0-------2-----------
E---0-------------------------------0-----------------------------------


e-----------------------------------------------------------------------
B-----------------------------------------------------------------------
G---------------0---4---2-----------------------------------------------
D-------2-----2-----------------4-----0-2~------------------------------
A---2-------------------------------------------------------------------
E-----------------------------------------------------------------------


e-----------------------------------------------------------------------
B-----------------------------------------------------------------------
G---------------0---4---6~------7-----6-4~------------------------------
D-------2-----2---------------------------------------------------------
A---2-------------------------------------------------------------------
E-----------------------------------------------------------------------


20170812

ADUNBEE IN DREAMS TAB (LORD OF THE RINGS THEME GUITAR COVER)

Adunbee plays In Dreams - Lord of the Rings theme guitar cover.
She plays it in Dropped-D tuning.
Download the tab below.



ADUNBEE IN DREAMS TAB

GP5 + GP6 + PDF >>

(Dropped D tuning)

e-----------------------------------------------------------------------
B-----------------------------------------------------------------------
G-----------5-----------------------------------------------------------
D---3-5-7-------7------5h7p5p3------------------------------------------
A---3----------------------------3--------------------------------------
D---3--------------------------------3----------------------------------


e-----------------------------------------------------------------------
B-----------------------------------------------------------------------
G-----5-7-----10-9------------------------------------------------------
D---7---0-----8------10---7-----7h8p7p0-5~------------------------------
A---0---x-----8-----------8-------------3~------------------------------
D---0---8-----8---------------------------------------------------------


e-----------------------------------------------------------------------
B-----------------------------------------------------------------------
G-----------5-----------------------------------------------------------
D---3-5-7-------7------5h7p5p3------------------------------------------
A---3----------------------------3--------------------------------------
D---3--------------------------------3----------------------------------


20170807

BEE GEES HOW DEEP IS YOUR LOVE TAB (FINGERSTYLE GUITAR COVER BY GIAN PIERO FERRINI)

Gian Piero Ferrini plays a great fingerstyle guitar cover of How Deep Is Your Love.
Dropped D tuning with CAPO on the 2nd fret. (original song by Bee Gees)
Download the Guitar Pro 6 and PDF files below.



GIAN PIERO FERRINI HOW DEEP IS YOUR LOVE TAB

GP6 + PDF >>

Intro

e-----------------------------------------------------------------------
B-----------------------0-------------------------------0---------------
G-----------0--h2---------------0---------------2---------------0-------
D-------0-----------0-------0-----------0--h4-------4-------4-----------
A-----------------------------------------------------------------------
D---5-------------------------------5-----------------------------------


e-----------------------------------------------------------------------
B---------------0-------------------0h1-----------------1---------------
G-----------0-----------0-------0---0-----------0-----------------0-----
D-------2-----------2-------2-------2-------2-------2-------0h2---------
A---3-------------------------------0-----------------------------------
D-----------------------------------------------------------------------


e-----------------------------------------------------------------------
B-----------------------0-------------------------------0---------------
G-----------0--h2---------------0---------------2---------------0-------
D-------0-----------0-------0-----------0--h4-------4-------4-----------
A-----------------------------------------------------------------------
D---5-------------------------------5-----------------------------------

 

20170801

STEVE TERREBERRY CARELESS WHISPER TAB (SOLO)


Steve Terreberry plays an instrumental cover of Careless Whisper by George Michael.
There is a cool solo at 2:40 and it goes until about 3:30.
Download this guitar solo tab below.



STEVE TERREBERRY CARELESS WHISPER SOLO TAB

GP5 + GP6 + PDF >>

Solo 

e---20(22)-----20(22)-----20(22)~~~-----------------(22)(20)-17-18------
B-----------------------------------------------------------------------
G-----------------------------------------------------------------------
D-----------------------------------------------------------------------
A-----------------------------------------------------------------------
E-----------------------------------------------------------------------


e---20-18-17--17-18-20-18-17--17-18-20-18-17--17-18-20-18-17--17-18-----
B-----------20--------------20--------------20--------------20----------
G-----------------------------------------------------------------------
D-----------------------------------------------------------------------
A-----------------------------------------------------------------------
E-----------------------------------------------------------------------


e---20-18-17--17-18-20-18-17--17-18-20-18-17--17-18-20-18-17--17--------
B-----------20--------------20--------------20--------------20--20------
G-----------------------------------------------------------------------
D-----------------------------------------------------------------------
A-----------------------------------------------------------------------
E-----------------------------------------------------------------------

20170727

THE BEATLES IN MY LIFE TAB (INSTRUMENTAL GUITAR COVER BY ROBERTO BARALLOBRE)


Roberto Barallobre plays a great instrumental guitar cover of In My Life by The Beatles.
Download the TAB below.



THE BEATLES IN MY LIFE INSTRUMENTAL TAB

GP5 + GP6 + PDF >>

Part 1

e-----------------------------------------------------------------------
B-----------------------------------------------------------------------
G---0-------0-2-5-4~------------------0-------0-2-5-4~------------------
D-----------------------------------------------------------------------
A-----------------------------------------------------------------------
E-----------------------------------------------------------------------


e-----------------------------------------------------------------------
B---------------------------8-------------------------------------------
G---------5---5---7---7/9-----9~----------------------------------------
D---5-5h7---------------------------------------------------------------
A-----------------------------------------------------------------------
E-----------------------------------------------------------------------


e-----------------------------------------------------------------------
B-------------------------------4/5-5~----------------------------------
G---7h9-7~---\-5-5~-----------------------------------------------------
D-----------------------6/7-5-------------------------------------------
A-----------------------------------------------------------------------
E-----------------------------------------------------------------------

20170721

KALEI GAMIAO SILENT NIGHT TAB (UKULELE COVER)


Kalei Gamiao plays a fantastic instrumental ukulele cover of Silent Night.
Download the Guitar Pro 6 + GP5 and PDF files below.
Part 2 starts about 1:07 in the video.



KALEI GAMIAO SILENT NIGHT UKULELE TAB

GP5 + GP6 + PDF >>

Part 2

A-------------------<12>------------------------------------------------
E---3<15>------------------3<15>-------<12>-----------0-----------------
C---------------0---------------------------------0---------------------
G-----------0----------------------0----------0-----------0---0---------


A-------------------<12>--------------------------------------5---------
E---3<15>------------------3<15>-------<12>-----------0-----------------
C---------------0---------------------------------0---------------------
G-----------0----------------------0----------0-----------0-------------


A---5---------------5-------2---------------0---2/3---------------------
E---------------3-----------1-----------1-------------------------------
C-----------5---------------2-------2-----------------------------------
G-------0---------------0---0---0---------------------------------------


A---3---------------3---------------------------------------------------
E-----------0---------------3-----------3-------------------------------
C-----------------------------------0-----------------------------------
G-------0-------0-------0-------0-----------0---0-----------------------


20170712

THE VENTURES SAN ANTONIO ROSE TAB (GP5 + GP6 + PDF)


The Ventures play San Antonio Rose.
Amazing instrumental lead guitar playing.
Download the TAB below.



THE VENTURES SAN ANTONIO ROSE TAB

GP5 + GP6 + PDF >>

Part 1

e-----0---0-1-0-----------------------------------0-------0-------------
B-------4-------3-1p0-----------------------0-------0-------0.----------
G---------------------2-1-------------------1-------2-------1.----------
D-------------------------3-2-0-------------2-------3-------2.----------
A-------------------------------3-2---------2-------3-------2.----------
E-----------------------------------0.----------------------------------


Part 2

e-------5.--7/9---------5.----------------------------------------------
B---5.----------------------5------------5---------5-7.--3p2p1p0--------
G-----------------------------------/6-------7---7----------------------
D-----------------------------------------------------------------------
A-----------------------------------------------------------------------
E-----------------------------------------------------------------------


e------------------0---------------------------5------------------------
B---9----------7---x-------7---5-----------5----------------------------
G---7----------7---7---------------6---------------6--------------------
D---9-------------------------------------------------------------------
A-----------------------------------------------------------------------
E-----------------------------------------------------------------------


20170618

DAVE MONK DREAM LOVER TAB (INSTRUMENTAL GUITAR COVER OF BOBBY DARIN'S SONG)


Dave Monk plays an instrumental guitar cover of Dream Lover by Bobby Darin.
Download the TAB below.



DAVE MONK DREAM LOVER TAB

GP5 + GP6 + PDF >>

Part 1

e-----------------------------------------------------------------------
B-------------------------5---------------------------------------------
G-------5---5-5-----5---7-----7-5~----------------------5~--------------
D-----5-----------5--------------------7-7-5-7~---7-5-7------7~---------
A-----------------------------------------------------------------------
E-----------------------------------------------------------------------


e-----------------------------------------------------------------------
B-------------------------5---------------------------------------------
G------5---5~-------5---7-----7-5~----------------------5~--------------
D----5---5--------5--------------------7-7-5-7~---7-5-7------7~---5-7-5-
A-----------------------------------------------------------------------
E-----------------------------------------------------------------------


e-----------------------------------------------------------------------
B-------------------------------------5------------5/6-6-5--------------
G---5-(4)-(5)~-------5/7-7~---------7---7-5~---------------5~-----------
D-----------------------------------------------------------------------
A---- tremolo ----------------------------------------------------------
E-----------------------------------------------------------------------


20170527

NIR SHOR ANGELS & DEMONS TAB (EPIC GUITAR ROCK COVER)

Hans Zimmer - Angels & Demons guitar cover played by Nir Shor.
The YouTube video title says: 'EPIC GUITAR ROCK COVER'
Download the Guitar Pro 6 + GP5 and PDF files below.



ANGELS & DEMONS TAB

GP5 + GP6 + PDF >>

e------------------------------7----------------------------7-----------
B-----------------6---9---10-------------------6---9---10---------------
G---9---7---9---9----------------9---7---9---9--------------------------
D-----------------------------------------------------------------------
A-----------------------------------------------------------------------
E-----------------------------------------------------------------------
    x   x   x   x x   x   x    x x   x   x   x x   x   x    x


e------------------------------7----------------------------7-----------
B-----------------6---9---10-------------------6---9---10---------------
G---9---7---9---9----------------9---7---9---9--------------------------
D-----------------------------------------------------------------------
A-----------------------------------------------------------------------
E-----------------------------------------------------------------------
    x   x   x   x x   x   x    x x   x   x   x x   x   x    x


e-----------------------------------------------------------------------
B---12---13--------13-12--------10---12---------------------------------
G-------------9~-----------9~-------------------------------------------
D-----------------------------------------------------------------------
A-----------------------------------------------------------------------
E-----------------------------------------------------------------------


20170520

BURNS ERNST COUNTRY ROADS TAB (INSTRUMENTAL GUITAR COVER)

Burns Ernst plays (Take Me Home) Country Roads with his Fender Telecaster.
Great instrumental cover of the old John Denver song.
Download the Guitar Pro 6 + GP5 and PDF files below.



BURNS ERNST COUNTRY ROADS TAB

GP5 + GP6 + PDF >>

Verse

e-----------------------------------------------------------------------
B-----------------------------------------------------------------------
G-----------------------------------------------------------------------
D-----------------------------------------------------------------------
A-----------------------------------------------------0-----------------
E-----------0---0-0h2-------0---------------2---0-2---------------------


e-----------------------------------------------------------------------
B-----------------------------------------------------------------------
G-----------------------------------------------------------------------
D-----------------------------------------------------------------------
A-----------2---2-2h4-------2-------------------------------------------
E-----------------------------------2---2-2-----0---2--/5-5-------------


e-----------------------------------------------------------------------
B-----------------------------------------------------------------------
G-----------------------------------------------------------------------
D-----------------------------------------------------------------------
A---------------------------------------0-0-----4---4-------------------
E-----------0---0-0h2-------0-------2-----------------------------------



20170430

MARK KNOPFLER THE LONG ROAD TAB (BURNS ERNST INSTRUMENTAL GUITAR COVER)

The Long Road (Mark Knopfler cover) played by Burns Ernst.
Easy instrumental guitar cover.
Download the Guitar Pro 6, GP5 and PDF files below.



MARK KNOPFLER THE LONG ROAD TAB

GP5 + GP6 + PDF >>

Part 1

e-----------------------------------------------------------------------
B---------------3---------------3---------------------------------------
G---4~------2-----4~--------2-----4~------------------------------------
D-----------------------------------------------------------------------
A-----------------------------------------------------------------------
E-----------------------------------------------------------------------


e-----------------------------------------------------------------------
B---------------3---------------3---------------------------------------
G---4~------2-----4~--------2-----4~------------------------------------
D-----------------------------------------------------------------------
A-----------------------------------------------------------------------
E-----------------------------------------------------------------------


e-----------------------------------------------------------------------
B-----0-1-------------------------------0-------------------------------
G-------------------------------------2---------------------------------
D---0-------2~----------------------2-------0---------------------------
A-----------------------------------------------------------------------
E-----------------------------------------------------------------------


20170414

CALIFORNIA BLUE GUITAR INSTRUMENTAL TAB (ROY ORBISON)


Roy Orbison - California Blue easy instrumental guitar cover.
Download the Guitar Pro 6 + GP5 and PDF files below.



ROY ORBISON CALIFORNIA BLUE INSTRUMENTAL TAB

GP5 + GP6 + PDF >>

Part 1

  D           D                             G
e-----------------------------------------------------------------------
B-----------------------------------------------------------------------
G-----------------------------------------------------------------------
D-----------------------------------------------------------------------
A---5-7-7/9---9-----------------9-9-10----9-5---------------------------
E-----------------------------------------------------------------------

                A                         D
e-----------------------------------------------------------------------
B-----------------------------------------------------------------------
G-----------------------------------------------------------------------
D---5-5-5-----4---------------------------------------------------------
A---------------4-------------7-7-7-5-7-7/9-----------------------------
E-----------------------------------------------------------------------

              D                             G
e-----------------------------------------------------------------------
B-----------------------------------------------------------------------
G-----------------------------------------------------------------------
D-----------------------------------------------------------------------
A---5-7-7/9---9-----------------9-9-10----9-5---------------------------
E-----------------------------------------------------------------------


20170409

DEL SHANNON RUNAWAY TAB (INSTRUMENTAL GUITAR COVER)


Del Shannon - Runaway instrumental guitar cover played by MatevzB.
See the TAB under the video.



DEL SHANNON RUNAWAY INSTRUMENTAL TAB

GP5 + GP6 + PDF >>

e-----------------------------------------------------------------------
B---------------------------------5-3-----------------------------------
G-------2-------2/4---2---4-5---------------4---------------------------
D-----------------------------------------------------------------------
A-----------------------------------------------------------------------
E-----------------------------------------------------------------------


e-----------------------------------------------------------------------
B-----------------3-----------------------------------------------------
G---2-----2-4-------5~------2-------------------------------------------
D-----5-----------------------------------------------------------------
A-----------------------------------------------------------------------
E-----------------------------------------------------------------------


e-----------------------------------------------------------------------
B-----------------------------------------------------------------------
G-----------2-----2/5---4~----------------------------------------------
D---5-3---5-------------------------------------------------------------
A-----------------------------------------------------------------------
E-----------------------------------------------------------------------


20170404

BIG BILL BROONZY GLORY OF LOVE TAB (INTRO)


Big Bill Broonzy - Glory Of Love guitar cover played by Eddie.
The intro part is so cool that it worth a try.
Download the Guitar Pro 6, GP5 and PDF files below.



BIG BILL BROONZY GLORY OF LOVE TAB

GP5 + GP6 + PDF >> 

Intro 

e---------0---------------------1.----1---------------------------------
B-------1-----------1-----------0.----0-----0---------------------------
G---------------------2---0-----0.----0-------2---0---------------------
D-----------------------------------------------------------------------
A---x-----3-----3-----3-----3-----x-----x-----x-----x-------------------
E---3-----x-----x-----x-----x-----3-----3-----3-----3-------------------


e---3.----3-------------------3.----1-----------------------------------
B---1.----1-------------------1.----1-----1-----------------------------
G---0.----0-----------------------------2-----2-------------------------
D-----------------------------------------------------------------------
A-----3-----3-----3-----3-----x-----x-----x-----x-----------------------
E-----x-----x-----x-----x-----1-----1-----1-----1-----------------------


e---------0.------0-----------------------------------------------------
B---1-----1.----1-----3p1---------3.----1h3-----0-----------------------
G---0-----------------------0-----0.----0-----0-------------------------
D---------------------------0-------------------------------------------
A-----3-----3-----3-----3-----x-----x-----x-----x-----------------------
E-----x-----x-----x-----x-----3-----3-----3-----3-----------------------


20170325

BURNS ERNST BLUEING TAB


Burns Ernst plays an instrumental guitar cover of Blueing.
The original song was composed and played by Matti Luhtala.
Download the Guitar Pro 6 and PDF files below.



BURNS ERNST BLUEING TAB

GP6 + PDF >>

Intro

e-----------------------------------------------------------------------
B-----------------3---------------3-------------------------------------
G---4---------2-4---4~--------2-4---4~--------2-4-2---------------------
D---------------------------------------------------2-------------------
A-----------------------------------------------------------------------
E-----------------------------------------------------------------------


Verse

e-------------/7--7--7--5.-----3-------2h3-2----------------------------
B------0---1----------------5----------------3---------3----------------
G--2-------------------------------------------4~---------4.------------
D------------------------------------------------------------4--2~------
A-----------------------------------------------------------------------
E-----------------------------------------------------------------------


e--------------------------------------------------------3--2-----------
B--------------------------------------------------------------3--0-----
G-----------------------------------------------------------------------
D---------------5--5--5--5--5/7--4-------4h5-4-0------------------------
A--0---2---2h3-----------------------------------2----------------------
E-----------------------------------------------------------------------