Showing posts with label intro. Show all posts
Showing posts with label intro. Show all posts

20170917

VELVET REVOLVER WISH YOU WERE HERE TAB (LIVE INTRO SOLO BY SLASH)

Velvet Revolver - Wish You Were Here live version with a great Slash intro.
The intro solo is about 0:23 - 1:39 played on a double guitar.
Half step-down tuning.



VELVET REVOLVER WISH YOU WERE HERE TAB (INTRO SOLO)

PDF >>

 0:23 - 1:39

eb---10------10------10------10--------------10------10-----------------
Bb---10h12---10h12---10h12---10h12-----------10h12---10h12---10---------
Gb----------------------------------------------------------------------
Db----------------------------------------------------------------------
Ab----------------------------------------------------------------------
Eb----------------------------------------------------------------------


eb----------------------------------------------------------------------
Bb---10.--10--------10--------------------------------------------------
Gb---9.---9h11---11-----------------------------------------------------
Db-------------0--------------------------------------------------------
Ab----------------------------------------------------------------------
Eb----------------------------------------------------------------------


eb-------10------10-----------------------------------------------------
Bb-------10h12---10h12---10---10-------10---10---\----------------------
Gb-----------------------9----9h11-----9h11-9----\----------------------
Db---0------------------------------------------------------------------
Ab----------------------------------------------------------------------
Eb----------------------------------------------------------------------


20170329

SLASH PARADISE CITY INTRO TAB (MADE IN STOKE)


Slash plays a cool intro in the first 47 seconds. Paradise City - Made In Stoke.
Half-step down tuning - as usual.
Good luck!



SLASH PARADISE CITY INTRO TAB (MADE IN STOKE)

PDF >>

eb----------------------------------------3-----------------------------
Bb-----------1----------------------------3-------0h1p0-----------------
Gb--------------------------------0-------0-------0---------------------
Db-----0h2--------------------0h2---0-------------0---------------------
Ab---3-----3-----3------------------------------------------------------
Eb------------------------------------3---------------------------------


eb----------------------------------------------------------------------
Bb-----------------1----------1h3---1h3---1---0-------------------------
Gb----------------------------0-----0-------------------0---------------
Db-----------0h2--------------------------------------0-----------------
Ab-----2h3-------3----------------------------------2-------------------
Eb---3-----3--------------------------------------3---------------------


eb----------------------------------------------------------------------
Bb----------------------------------------------------------------------
Gb---0h2-0-----0--------------------------------------------------------
Db---------0h2---0---------------0h2------------------------------------
Ab-------------------------2h3------------------------------------------
Eb-----------------------3-----3----------------------------------------


20170309

LOS LONELY BOYS HEAVEN TAB (INTRO SOLO)


Los Lonely Boys - Heaven starts with a cool guitar solo until 0:30.
Half-step down tuning and use the neck pick-up on your Fender Stratocaster.
Download the Guitar Pro 6, GP5 and PDF files below.



LOS LONELY BOYS HEAVEN TAB

GP5 + GP6 + PDF >>

Intro solo

eb---7~----7.---------8/10-10-10-10-10-10-10\8----8.--------------------
Bb---8~----8.--------10/12-12-12-12-12-12-12\10---10.-------------------
Gb----------------------------------------------------------------------
Db----------------------------------------------------------------------
Ab----------------------------------------------------------------------
Eb----------------------------------------------------------------------


eb-----12.--12.--12.--12.--12-12\10----10.------------------------------
Bb-----13.--13.--13.--13.--13-13\12-12-12.------------------------------
Gb----------------------------------------------------------------------
Db----------------------------------------------------------------------
Ab----------------------------------------------------------------------
Eb----------------------------------------------------------------------


eb---10.--10.--10.--10-10\8-----8.---10.--12.--12.--10-10-x-8--x--------
Bb---12.--12.--12.--12-12\10-10-10.--12.--13.--13.--12-12-x-10-x--------
Gb----------------------------------------------------------------------
Db----------------------------------------------------------------------
Ab----------------------------------------------------------------------
Eb----------------------------------------------------------------------


20160803

EAST 17 EACH TIME TAB (MAIN GUITAR RIFF)

There is a great guitar intro in Each Time by East 17.
The same lick goes through almost the entire song.
See the TAB under the video.



EAST 17 EACH TIME TAB

PDF >>


e-----------------------------------------------------------------------
B---x--------4---------------------------4------------------------------
G---x-----4---------------------------4-----4---------------------------
D---x--4--------4-------4h6p4------4---------------4h6p4----------------
A---x--2-----------2h4/6-----6.----------------4h6------6.--------------
E-------------------------------4---------------------------------------


e-----------------------------------------------------------------------
B---------7--7--------7----------------7-----x-x-4h5-5------------------
G------6-----------6--6h8p6---------4-----4--x-x-4---4------------------
D---------------8--8-------8.----6-----------x-x-4h6-6------------------
A---6-------------------------7-----------------------------------------
E-----------------------------------------------------------------------


e-----------------------------------------------------------------------
B---x--------4---------------------------4------------------------------
G---x-----4---------------------------4-----4---------------------------
D---x--4--------4-------4h6p4------4---------------4h6p4----------------
A---x--2-----------2h4/6-----6.----------------4h6------6.--------------
E-------------------------------4---------------------------------------


20160710

THE ANIMALS BOOM BOOM TAB (INTRO + VERSE)

The Animals play a great version of John Lee Hooker's  Boom Boom.
Use a CAPO on the 1st fret to get the original key of the song.
See the TAB of the intro and the verse part under the video.



THE ANIMALS BOOM BOOM TAB

PDF >>

Intro

e-----------------------------------------------------------------------
B--------3--------------------------------------------------------------
G---3/4----2--0--------------------------0--3-2--0----------------------
D---------------2--0-2-----------------2-----------2--0-2---------------
A-----------------------------------------------------------------------
E-----------------------------------------------------------------------


e-----------------------------------------------------------------------
B--------3--------------------------------------------------------------
G---3/4----2--0--------------------------0--3-2--0----------------------
D---------------2----------------------2-----------2--0-2---------------
A------------------2-0--------------------------------------------------
E-----------------------------------------------------------------------


e-----------------------------------------------------------------------
B--------3--------------------------------------------------------------
G---3/4----2--0-----4-------------------------0---0---------------------
D---------------2------------------------0--2---------2-----------------
A--------------------------------------2--------------------------------
E-----------------------------------------------------------------------



20160101

METALLICA NOTHING ELSE MATTERS AWESOME INTRO TAB (LIVE IN SIDNEY)

Awesome intro of Nothing Else Matters live in Sydney.
Until about 0:45 and then comes the original song.
Half-step down tuning. TAB under the video.


NOTHING ELSE MATTERS AWESOME INTRO TAB (LIVE)

PDF >>

eb----------------------------------------------------------------------
Bb----------------------------------------------------------------------
Gb----------------------------------------------------------------------
Db-----6-7-7/9\7p6------------------------------------------------------
Ab---7-------------7~---------------------------------------------------
Eb----------------------0-----------------------------------------------


eb----------------------------------------------------------------------
Bb----------------------------------------------------------------------
Gb-----9.---------------------------------------------------------------
Db----9----8-6----------------------------------------------------------
Ab---x---------9-7-6-7-7/9\7-6----------6-7-----------------------------
Eb-----------------------------7~-----------0---------------------------


eb----------------------------------------------------------------------
Bb----------------------------------------------------------------------
Gb----------------------------------------------------------------------
Db-----------------9-8-6------------------------------------------------
Ab---6-7-7/9\7-6---------9-7-6-7~---------------------------------------
Eb---------------7------------------0-----------------------------------


20151122

ONCE UPON A TIME IN MEXICO SPANISH GUITAR INTRO TAB


Antonio Banderas, playing the guitar about 0:50.
Once Upon a Time in Mexico guitar intro.
See the TAB under the video.



ONCE UPON A TIME IN MEXICO SPANISH GUITAR INTRO TAB

PDF >>

Part 1

e-----------------------------------------------------------------------
B-----------5-----------5-----------5-----------------------------------
G-----6---6-6-----6---6-6-----6---6-6---7p6-7---------------------------
D---7---7---7---7---7---7---7---7---7-----------------------------------
A-----------0-----------0-----------0-----------------------------------
E-----------------------------------------------------------------------


e-----------------------------------------------------------------------
B-----------6-----------6---6/8-----6-6\5-5p3-5~------------------------
G-----7---7-7-----7---7-7-----------------------------------------------
D---7---7---7---7---7---7-----------------------------------------------
A-----------5-----------5-----------------------------------------------
E-----------------------------------------------------------------------


e-----------3-----------3---3/5-----------------------------------------
B-----5---5-5-----5---5-5-----------8-8p6-6p5-6~------------------------
G---5---5---5---5---5---5-----------------------------------------------
D-----------------------------------------------------------------------
A-----------------------------------------------------------------------
E-----------------------------------------------------------------------



20151002

WILLIE NELSON HE WAS A FRIEND OF MINE TAB (INTRO COVER BY MIKI ASHKENAZI)

Perfect guitar cover of the intro part of Willie Nelson's He Was A Friend Of Mine.
Great playing by Miki Ashkenazi. Use Dropped D tuning with CAPO on the 2nd.
Leave the low D and the A strings open. See the TAB under the video.



WILLIE NELSON HE WAS A FRIEND OF MINE TAB

PDF >>

Part 1

e-----------------------------------------------------------------------
B-----8-------8-----------------------2---5-----3-----------------------
G-7/9-------9-----9-----2-----------2-----------------------------------
D-------2-----------2-----------2-----------2---------------------------
A-0-----------0-----------0-----------0---------------------------------
D-----------------------------------------------------------------------


e-----------------------------------------------------------------------
B-------------------------3---------------3-----------------------------
G-----------------2-----------------------------2-----------------------
D-------4-----------5---4-------4-----------4---------------------------
A-------------0-----------------------0---------------------------------
D-0-----------------------0---------------------------------------------


e-----------------------------------------------------------------------
B-----8-------8---------------------7-------2---3-----------------------
G-7/9-------9-----9-----2-----------------2-----------------------------
D-------2-----------2-----------5/7---------5---4-----------------------
A-0-----------0-----------0-----------0---------------------------------
D-----------------------------------------------------------------------


20150222

AKRON/FAMILY AWAKE & MOMENT TAB (INTRO)

There is a nice intro part in Awake & Moment by Akron/Family. (0:00-2:29)
It is played in Dropped D tuning but unless 1 note you can play it in standard tuning too.
See the TAB under the video.



AKRON/FAMILY AWAKE & MOMENT INTRO TAB

PDF >>

e-----------------------------------------------------------------------
B-------5-------------------3-----------3-------------------3-----------
G-3---------3---------3-----------2---------2---------2-----------------
D-----5-------5-------5-------5-\-----3-------3-------3-------3---------
A-0-------0-------0-------0-------0-------0-------0-------0-------------
D-----------------------------------------------------------------------


e-----------------------------------------------------------------------
B-------2-------------------2---------------2---------------2-----------
G-0---------0-----2-------------2-----2---------------2-----------------
D-----2-------2-------2-------2-------2-------2-------2-------2---------
A-0-------0-------0---------------0---------------0---------------------
D-----------------------------------------------------------------------


e-----------------------------------------------------------------------
B-------5-------------------3-----------3-------------------3-----------
G-3---------3---------3-----------2---------2---------2-----------------
D-----5-------5-------5-------5-\-----3-------3-------3-------3---------
A-0-------0-------0-------0-------0-------0-------0-------0-------------
D-----------------------------------------------------------------------


20140914

NICKEL CREEK 21ST OF MAY TAB


There is a nice country guitar intro played in 21st Of May by Nickel Creek.
The extreme part goes until 0:42. Capo on the 3rd fret, standard tuning.
See the TAB under the video.



NICKEL CREEK 21ST OF MAY TAB

GP5 + GP6 + PDF >>

Intro

e-3/5-3-----------------------------------------------------------------
B-------4\3-------------------------------------------------------------
G-----------------------------------------------------------------------
D-----------------------------------------------------------------------
A-----------------------------------------------------------------------
E-----------------------------------------------------------------------


e-----------------------------------------------------------------------
B-1-----1---------------------------------------0-1-------------1-------
G---2-0---2-0-----------------------------0-1-2---------------0---------
D-------------2-1-0-----------------0-1-2-----------------0h2-----------
A---------------------------0-1-2-3-------------------------------------
E-------------------0-1-2-3---------------------------------------------


e-------0-------0-------------------------------------------------------
B-----1-------1---------0-------0-----1---------1-------1-----1---------
G-0h2-----2p0---------0-------0-------0-------0-------0-------0---------
D-----------------0h2-----1p0---------2-----2-------2-----0h2-----------
A---------------------------------3---------------3---------------------
E-----------------------------------------3-----------------------------


20140305

GUNS 'N' ROSES KNOCKING ON HEAVENS DOOR INTRO TAB (LIVE IN PARIS 1992)

Slash plays a brilliant intro with a 12 stringed guitar. This is a live performance of Knockin' on Heavens Door with Guns'N'Roses in Paris, 1992.
See the TAB of this particular intro (0:00 - 2:53) under the video.
Tune your guitar a half note down to get the right sound.


GUNS 'N' ROSES KNOCKING ON HEAVENS DOOR TAB

PDF >>

Part 1

D#----------------------------------------------------------------------
A#----------------------------------------------------------------------
F#----------------------------------------------------------------------
C#-------------------------------------------------------0h2------------
G#-----7h5-----------------------5h7---------0--------------------------
D#-0---------------------------------3'--3'------3'--0------------------


D#----------------------------------------------------------------------
A#----------------------------------------------------------------------
F#----------------------------------------------------------------------
C#-2-0-------0----------------------------------------------------------
G#-----2-1-2---0h1p0---1---0h1p0---0h1p0---1---0h1p0---0h1p0---1--------
D#-------------------3---3-------3-------3---3-------3-------3---3------


D#----------------------------------------------------------------------
A#----------------------------------------------------------------------
F#---------------------------------------------------0h2---p0-----------
C#---------0-----0---------------------------0---2----------------------
G#-0h1p0h2---2p1---2p1-0---1---0h1p0---0h1h2---2------------------------
D#-----------------------3---3-------3----------------------------------


20131203

COMMANDER CODY HOT ROD LINCOLN TAB (INTRO WITH LESSON)

Perfect detailed guitar lesson of Commander Cody - Hot Rod Lincoln intro part.
Thanks Bruce Lindquist for the lesson.
See the TAB below.



COMMANDER CODY HOT ROD LINCOLN TAB

PDF >>

e-----------------------------------------------------------------------
B-----------------------------------------------------------------------
G-----------------------------------------------------------------------
D-----------------------------------------------------------------------
A-----------------------------------------------------------------------
E-3'--------------------------------------------------------------------


e-----------------------------------------------------------------------
B-----------------------------------------------------------------------
G-----------------------------------------------------------------------
D-----------------------------------------2-2-4-2-5-2-4-5-4-2-----------
A---------2-2-4-2-5-2-4-5-4-2-----0-0-3-4---------------------3-4-------
E-0-0-3-4---------------------3-4---------------------------------------


e-----------------------------------------------------------------------
B-----------------------------------------------------------------------
G-----------------------------------------------------------------------
D---------4-4-6-4-7-4-6-7-6-4-----2-2-----2-2-----2-----2---2-2---------
A-2-2-5-6---------------------5-6-----4p2-----4p2---4p2-----------------
E-----------------------------------------------------------------------


20131113

HOTEL CALIFORNIA ACOUSTIC TAB (INTRO COVER BY ALI STEAD)

Alicia Stead plays a nice Hotel California intro with a Carparelli Spirit of 69 guitar.
Creative and soft playing by a very nice lady.
TAB under the video.


HOTEL CALIFORNIA ACOUSTIC TAB

PDF >>

e-9---------------------------------------------------------------------
B-7------------------------2-3-5-7---7h8p7p5-5/7------------------------
G-7--------4-4h6p4p3-4--------------------------------------------------
D-7---------------------------------------------------------------------
A-9---------------------------------------------------------------------
E-7---------------------------------------------------------------------


e-----------------------------------------------------------------------
B-10-----------3-2.-----------------------------------------------------
G--9-------2-4--------2--2/4---2----------------------------------------
D-11-------------------------------4\2----------------------------------
A-12-------------------------------------2/7~---------------------------
E-----------------------------------------------------------------------


e-0--------------0-------0-------0-------0-------7p0-----10p0-----------
B-0------------0-------0-------0-------0-------8-------8----------------
G-0----------0-------2-------4-------7-------9-------9------------------
D-2--------2-------4-------5-------9------------------------------------
A-2---------------------------------------------------------------------
E-0---------------------------------------------------------------------


20131026

THIN LIZZY WHISKEY IN THE JAR TAB (LEAD GUITAR IN THE OFFICIAL MUSIC VIDEO)

Brilliant lead guitar parts in Thin Lizzy - Whiskey In The Jar.
Take your Fender Stratocaster and you can immediately start to play this brilliant intro solo and all the other solos. Use standard tuning but with 433 Hz. TAB below.


THIN LIZZY WHISKEY IN THE JAR TAB

PDF >>

Intro

e-8~-----------8---8p7p5-7~------------7---7p5--------------------------
B----------------------------------------------8---8(10)~~~-------------
G-----------------------------------------------------------------------
D-----------------------------------------------------------------------
A-----------------------------------------------------------------------
E-----------------------------------------------------------------------


e-----------------------------------------------------------------------
B-8p5-------------------------------------------------------------------
G-----7p4---------------------------------------------------------------
D---------7p5~----------------------------------------------------------
A-----------------------------------------------------------------------
E-----------------------------------------------------------------------


e-----------------------------------------------------------------------
B----------------5h8p5--------------------------------------------------
G------------4h7-------7---/9~------------------------------------------
D-7p5---h7--------------------------------------------------------------
A-----------------------------------------------------------------------
E-----------------------------------------------------------------------


20130927

JAMES BLUNT BONFIRE HEART TAB AND LESSON


Short guitar lesson how to play the nice chords of James Blunt - Bonfire Heart.
See the TAB below.



JAMES BLUNT BONFIRE HEART TAB

PDF >>

Intro

  C
e-----------------------------------------------------------------------
B-----1---------------1-------------1---------------1-------------------
G-----------0---------------0-------------0-------------0---------------
D---------2-----2---------2-------------2-----2-------------2-----------
A-3---------------3-------------3---------------3-----------------------
E-----------------------------------------------------------------------


Verse

  C
e-----------------------------------------------------------------------
B-----1---------------1-------------1---------------1-------------------
G-----------0---------------0-------------0-------------0---------------
D---------2-----2---------2-------------2-----2-------------2-----------
A-3---------------3-------------3---------------3-----------------------
E-----------------------------------------------------------------------

  Em
e-----------------------------------------------------------------------
B-----0---------------0---------------0---------------0-----------------
G-----------0---------------0---------------0-------------0-------------
D---------2-----2---------2-----2---------2-----2-------------0---------
A-----------------------------------------------------------------------
E-0---------------0---------------0---------------0---------------------


20130921

ERIC CLAPTON MY FATHERS EYES TAB (INTRO SOLO LIVE IN 2007)

Eric Clapton plays a nice introduction to My Fathers Eyes in this live version.
See the TAB of this cool solo by 0:22 and the solo by 4:21 below and learn to play it like Eric Clapton does.


ERIC CLAPTON MY FATHERS EYES TAB

PDF >>

Intro by 0:22 - 1:30

e-----------------------------------------------------------------------
B-------------------4-5-4h5p4-------------------------------------------
G-4.---5.---------------------6-4~--------------------------------------
D-----------------------------------------------------------------------
A-----------------------------------------------------------------------
E-----------------------------------------------------------------------


e-----------------------------------------------------------------------
B---------------------------------------------------9h10-9~-------------
G-------4---------------------------------------------------------------
D-4/6-----6\4~-----------2~---------------------------------------------
A-----------------------------------------------------------------------
E-----------------------------------------------------------------------


e-----------------------------------------------------------------------
B-----------------------------------------------------------------------
G-9h11p9----9-11-11/13~---------9h11----9~------------------------------
D--------11--------------------------11---------------------------------
A-----------------------------------------------------------------------
E-----------------------------------------------------------------------


20130820

BOB MARLEY SOUL CAPTIVES TAB

There is a cool guitar solo in Bob Marley - Soul Captives
No effects, no distortion, just the pure sound of a tube amp and a Les Paul guitar.
See the TAB of the solo and the chords below.



BOB MARLEY SOUL CAPTIVES TAB

PDF >>

Intro solo

e----11~-----11.-9~---------8~------------------------------------------
B--------------------------------11~---9-9~-----------------------------
G-8.--------------------------------------------------------------------
D-----------------------------------------------------------------------
A-----------------------------------------------------------------------
E-----------------------------------------------------------------------


e-----------------------------------------------------------------------
B-8.--------------------------------------------------------------------
G----10~---10~---8.-8~-------8-8~---------------------------------------
D------------------------10.--------------------------------------------
A-----------------------------------------------------------------------
E-----------------------------------------------------------------------


e----11~----11.-8-8~----------------------------------------------------
B------------------------11~--11~---9~---8.-8~--------------------------
G-8.---------------------------------------------10.--------------------
D-----------------------------------------------------------------------
A-----------------------------------------------------------------------
E-----------------------------------------------------------------------


20130804

CREEDENCE CLEARWATER REVIVAL HEY TONIGHT TAB


Short video how to play the intro part of Creedence Clearwater Revival - Hey tonight. Thanks JOHN FOGERTY for this awesome guitar riff and song. Use a tube amplifier and a LesPaul guitar with the bridge pick-up to get the original sound.
See the COMPLETE TAB under the video.


CREEDENCE CLEARWATER REVIVAL HEY TONIGHT TAB     

PDF >>

Intro

e-12-p9-9---7-p0-0---0---0---0---0---12-p9-9---7-p0-0---0---0---0---0---
B-0-----0---0----0---5---5---2---2---0-----0---0----0---5---5---2---2---
G-----------------------------------------------------------------------
D-----------------------------------------------------------------------
A-----------------------------------------------------------------------
E-----------------------------------------------------------------------


e-12-p9-9---7-p0-0---0---0---0---0-------0-------0-------0-------0------
B-0-----0---0----0---5---5---2---2-------0-------0-------0-------0------
G-----------------------------------------------------------------------
D------------------------------------6-------4-------6-------4----------
A-----------------------------------------------------------------------
E-----------------------------------------------------------------------


20130801

ERIC CLAPTON OLD LOVE TAB (LIVE IN HYDE PARK)

Eric Clapton - Old Love live in Hyde Park. Amazing song with a brilliant solo part.
Note that Sir Eric Clapton plays without any extra effects, only the pure Stratocaster and it sounds amazing. TAB below.



ERIC CLAPTON OLD LOVE TAB

PDF >>

Intro part

e-----------------------------------------------------------------------
B-----------------------------------------------------------------------
G-----------------------------------------------------------------------
D--------5.---7.--------------------------------------------------------
A-5h7.------------------------------------------------------------------
E-----------------------------------------------------------------------


e-----------------------------------------------------------------------
B-5-------x---6---------------x---3-------x---3-------------------------
G-5-------x---5---------------x---5-------x---4-------------------------
D---7~----x---7---------------x---5-------x---5-------------5-----------
A---------x---5---------------x---5-------x---5-------5/7-----7\5--p3---
E-----------------------------------------------------------------------


20130722

THE CONNELS 74 75 TAB

There is a wonderful guitar solo in The Connels - 74 -75. You can learn this solo very easy, just tune your guitar half note lower (that is D# G# C# F# A# D# instead of the standard tuning) and watch this video.
You can also find the TAB of the complete song below.



THE CONNELS -74-75 TAB

PDF >>

SOLO

eb-------------------------5-----------------------------------3--------
Bb-5-----------5---------------8---5------------5-8-\-------------------
Gb-5---7---5---5---7---5------------------------------4-5--------4------
Db-----7---5-------7---5------------------------------------------------
Ab----------------------------------------------------------------------
Eb----------------------------------------------------------------------


eb----------------------------------------------------------------------
Bb----------------------------------------------------------------------
Gb-5-4h5-5-4-\--0------------0h2h4h5-------4.---2.---0-0h2~-------------
Db----------------------------------------------------------------------
Ab----------------------------------------------------------------------
Eb----------------------------------------------------------------------