Showing posts with label jaman spake. Show all posts
Showing posts with label jaman spake. Show all posts

20151106

JAMAN SPAKE REGGAE LEAD GUITAR SOLO TAB (STEEL PULSE YOUR HOUSE SOLO)

Jaman Spake plays a nice reggae guitar solo with his old Fender on the beach.
The original song is Your House by Steel Pulse.
See the TAB under the video.



JAMAN SPAKE REGGAE LEAD GUITAR SOLO TAB

GP5 + GP6 + PDF >>

e-----------------------------------------------------------------------
B------------------------------------------------7.--6.-----------------
G--------6-8-8(10)---(8)----------6--h8------------------6--------------
D-----/8------------------------8---------------------------------------
A-----------------------------------------------------------------------
E-----------------------------------------------------------------------


e------8h9p8-9/13--------------------------------6----------------------
B---/9------------------14------13-14--------------9-6------------------
G------------------------------------------------------8-6--------------
D-----------------------------------------------------------------------
A-----------------------------------------------------------------------
E-----------------------------------------------------------------------


e----------------13---------------13------------------------------------
B--------13-14------13-16---14p13------13h14p13-16---14-----------------
G---13h15---------------------------------------------------------------
D-----------------------------------------------------------------------
A-----------------------------------------------------------------------
E-----------------------------------------------------------------------