Showing posts with label jen trani. Show all posts
Showing posts with label jen trani. Show all posts

20170629

LEONARD COHEN HALLELUJAH TAB (MINI COVER BY JEN TRANI)

Jen Trani plays Leonard Cohen's Hallelujah in the style of Jeff Buckley.
She uses open E tuning with Capo on the 4th fret.
Download the TAB below.



JEN TRANI HALLELUJAH TAB

GP5 + GP6 + PDF >>

Intro

e---------------7--------------11~----------------7--------------11~----
B------5-h7-/9-----9.-------9------------5-h7-/9-----9.-------9---------
Ab-----------------------0---------------------------------0------------
E-----------------------------------------------------------------------
B-----------------------------------------------------------------------
E---0-----------------9---------------0-----------------9---------------


e-----------------------------------------------------------------------
B----------5.-4--0-----------5.-4--0------------------------------------
Ab------5-----------5-----5-----------5---------------------------------
E-----------------------------------------------------------------------
B-----------------------------------------------------------------------
E----5-----------------5------------------------------------------------


e----------------------------------0------------------------------------
B----------7--7-----------------7-----7---------------------------------
Ab------7--------7-----------7------------------------------------------
E-----------------------------------------------------------------------
B-----------------------------------------------------------------------
E----7--------------7--7------------------------------------------------