Showing posts with label joe bonamassa. Show all posts
Showing posts with label joe bonamassa. Show all posts

20161230

JOE BONAMASSA BRIDGE TO BETTER DAYS TAB (GUITAR SOLO, LIVE)

Joe Bonamassa plays a brilliant guitar solo from 2:03 to 3:44
On YouTube: 'Joe Bonamassa - Bridge To Better Days (Arhus Denmark - July 2009)'
Download the GP5, GP6 and PDF files below.



JOE BONAMASSA BRIDGE TO BETTER DAYS SOLO TAB

GP5 + GP6 + PDF >>

e-------------5-----------------5---------------------------------------
B-------------5-----------------5--------------5/7-x-5-5----------------
G--------------------------------------------------x--------------------
D----5-7~-------7~-----5-7~-------7~-----7p5---5/7-x-5-5---4---4-5-5-6-6
A--0--------0--------0--------0--------0-----7--------------------------
E--------------------------------------------------------x-2---2-3-3-4-4
   x        x        x        x        x


e-------------5-----------------5---------------------------------------
B-------------5-----------------5--------------5/7-x-5-5----------------
G--------------------------------------------------x--------------------
D----5-7~-------7~-----5-7~-------7~-----7p5---5/7-x-5-5---4---4-5-5-6-6
A--0--------0--------0--------0--------0-----7--------------------------
E--------------------------------------------------------x-2---2-3-3-4-4
   x        x        x        x        x


e-------------5-----------------5---------------------------------------
B-------------5-----------------5--------------5/7-x-5-5----------------
G--------------------------------------------------x--------------------
D----5-7~-------7~-----5-7~-------7~-----7p5---5/7-x-5-5---4---4-5-5-6-6
A--0--------0--------0--------0--------0-----7--------------------------
E--------------------------------------------------------x-2---2-3-3-4-4
   x        x        x        x        x



20160906

JOE BONAMASSA SLOE GIN GUITAR SOLO TAB (COVER BY FLORIAN CASCIANO)


Florian Casciano plays a great cover of Joe Bonamassa - Sloe Gin guitar solo part.
See the TAB under the video.



JOE BONAMASSA SLOE GIN GUITAR SOLO TAB


e-----------------------------------------------------------------------
B-------------------------------3-----------3---3---3---3---3---3-------
G---2---------------------------0-----------0---0---0---0---0---0-------
D---2-------2---2---2---2---2---0-----------0---0---0---0---0---0-------
A---0-------0---0---0---0---0---x-----------x---x---x---x---x---x-------
E-------------------------------3-----------3---3---3---3---3---3-------


e-----------1p0-----------------------------3---------------------------
B---------3-----3p1---------1-p-0---------------0-0---------------------
G---2---2---------------0---------------0-------0-0-3-------5-----------
D---0---------------3-------------------------------3---3-3-5---5-5-----
A---------------------------------------------------1---1-1-3---3-3-----
E-----------------------------------3-----------------------------------


e-----------------------------------------------------------------------
B-------------------------------3---------------------------------------
G---2-------2-------2-----------0---------------------------------------
D---2---2---2---2---2---2---2---0---------------------------------------
A---0---0---0---0---0---0---0---x---------------------------------------
E-------------------------------3---------------------------------------