Showing posts with label la fuga. Show all posts
Showing posts with label la fuga. Show all posts

20160917

LA FUGA EN VELA TAB (GUITAR SOLO)

Great guitar solo in La Fuga - En Vela around 1:50 till around 2:20.
The solo is in F# minor played in standard tuning.
See the TAB under the video.



LA FUGA EN VELA SOLO TAB

GP5 + GP6 + PDF >>

(1:54 - 2:22)

e-----------------------------------------------------------------------
B-----------------------------------------------------------------------
G---/14----14~-------------16(18).--14~---------------------------------
D-------16--------------------------------------------------------------
A-----------------------------------------------------------------------
E-----------------------------------------------------------------------


e-----------------------------------------------------------------------
B--17(19)---17-14-17-14h17p14--14---------------------------------------
G----------------------------16--16(18)(16)p14--14-16(18)(16)p14-16-16\-
D---------------------------------------------16------------------------
A-----------------------------------------------------------------------
E-----------------------------------------------------------------------


e----------------------------------------------17(19)---17~-------------
B--------------------------------17(19).--17.---------------------------
G---------14~-------16(18).--14-----------------------------------------
D---/14h16--------------------------------------------------------------
A-----------------------------------------------------------------------
E-----------------------------------------------------------------------