Showing posts with label lead. Show all posts
Showing posts with label lead. Show all posts

20161104

DARIUS RUCKER HOMEGROWN HONEY TAB (ACOUSTIC)

Darius Rucker plays his original song Homegrown Honey with his friends.
Use standard tuning and put the Capo on the 2nd fret to play the lead guitar parts.
(Darius has the Capo on the 1st. - good idea )
Free Download of the Guitar Pro files !!!




DARIUS RUCKER HOMEGROWN HONEY ACOUSTIC TAB

GP5 + GP6 + PDF >>

Intro Solo                     - CAPO on the 2nd -

e-----------------------------------------------------------------------
B-----------------------------------------------------------------------
G-----------4.--6-6/8~--------------------------------------------------
D---4-4-6.--------------------------------------------------------------
A-----------------------------------------------------------------------
E-----------------------------------------------------------------------


e-----------------------------------------------------------------------
B--------------------------------7~-------------------------------------
G---------------4.--6-6/8~----------------8\6p4-------------------------
D---x-x-4-4-6.---------------------------------6~-----------------------
A-----------------------------------------------------------------------
E-----------------------------------------------------------------------


e-----------------------------------------------------------------------
B-------------------------7~--------------------------------------------
G---------------4.--6-6/8~----------------------------------------------
D---6-0-4-4-6.----------------------------------------------------------
A-----------------------------------------------------------------------
E-----------------------------------------------------------------------


20160521

RIOT V TAKE ME BACK TAB (LEAD GUITAR LINE - GUITAR PRO TAB)

Riot V - Take Me Back lead guitar line.
See the TAB under the video.



RIOT - TAKE ME BACK TAB

PDF >>

Intro

e-----------------------------------------------------------------------
B-----------------------------------------------------------------------
G----------------------------0---2-------5---7~-------------------------
D----------------------------0---2-------5---7~-------------------------
A---5p3p0-6p0-10-7p0-6-5p3p0-------0-0-0--------------------------------
E-----------------------------------------------------------------------
                                   x x x

e-----------------------------------------------------------------------
B----------------------------------------3------------------------------
G----------------------------0---2-------0------------------------------
D----------------------------0---2-------0------------------------------
A---5p3p0-6p0-10-7p0-6-5p3p0-------0-0-0-x------------------------------
E----------------------------------------3------------------------------
                                   x x x

e-----------------------------------------------------------------------
B-----------------------------------------------------------------------
G----------------------------0---2-------5/7-5~-------------------------
D----------------------------0---2-------5/7-5~-------------------------
A---5p3p0-6p0-10-7p0-6-5p3p0-------0-0-0--------------------------------
E-----------------------------------------------------------------------
                                   x x x



20160514

BLUE ENCOUNT DAY X DAY TAB (GUITAR COVER BY ORBIT 1024)

Blue Encount - Day x Day - lead guitar cover.
Played by "orbit1024al" on YouTube.
Attention!!! Half-Step Up tuning, see the TAB under the video.



BLUE ENCOUNT DAY X DAY TAB

PDF >>

Intro

F-----------------------------------------------------------------------
C-----------------------8-8-8-101010.-----------------------------------
Ab----------------------------------------------------------------------
Eb----------------------5-5-5-7-7-7.------------------------------------
Bb----------------------------------------------------------------------
F-----------------------------------------------------------------------


F---12----\----------12-\-----------------------------------------------
C-----------8-/-10-/------8-/-13-/-13-12-x------------------------------
Ab--9-----\----------9--\-----------------------------------------------
Eb----------5-/-7--/------5-/-7--/-10-9--x------------------------------
Bb----------------------------------------------------------------------
F-----------------------------------------------------------------------


F---12----\----------20\19-19\17-17\15-15-15-x--------------------------
C-----------8-/-10-/----------------------------------------------------
Ab--9-----\----------17\16-16\14-14\12-12-12-x--------------------------
Eb----------5-/-7--/----------------------------------------------------
Bb----------------------------------------------------------------------
F-----------------------------------------------------------------------



20151106

JAMAN SPAKE REGGAE LEAD GUITAR SOLO TAB (STEEL PULSE YOUR HOUSE SOLO)

Jaman Spake plays a nice reggae guitar solo with his old Fender on the beach.
The original song is Your House by Steel Pulse.
See the TAB under the video.



JAMAN SPAKE REGGAE LEAD GUITAR SOLO TAB

PDF >>

GP5 + GP6 >>

e-----------------------------------------------------------------------
B------------------------------------------------7.--6.-----------------
G--------6-8-8(10)---(8)----------6--h8------------------6--------------
D-----/8------------------------8---------------------------------------
A-----------------------------------------------------------------------
E-----------------------------------------------------------------------


e------8h9p8-9/13--------------------------------6----------------------
B---/9------------------14------13-14--------------9-6------------------
G------------------------------------------------------8-6--------------
D-----------------------------------------------------------------------
A-----------------------------------------------------------------------
E-----------------------------------------------------------------------


e----------------13---------------13------------------------------------
B--------13-14------13-16---14p13------13h14p13-16---14-----------------
G---13h15---------------------------------------------------------------
D-----------------------------------------------------------------------
A-----------------------------------------------------------------------
E-----------------------------------------------------------------------


20150906

JOSH TURNER YOUR MAN TAB (LIVE AT THE BING LOUNGE, CHORDS AND SOLO)


Josh Turner plays an acoustic version of Your Man live at the Bing Lounge.
The TAB includes the lead guitar parts and the chords.



JOSH TURNER YOUR MAN TAB

PDF >>

Intro solo
                                   A
e-----------------------------------------------------------------------
B-----------------------------------------------------------------------
G------------------------------4.--2---------2--------------------------
D--------------------2.--4/6-------2h4p2-----2--------------------------
A-----------2.--/4-----------------------4------------------------------
E---0--/4---------------------------------------------------------------

                           E
e-----------------------------------------------------------------------
B-----------------------------------------------------------------------
G------------2----------------------------------------------------------
D--------2-------2h4---2.-----------------------------------------------
A---/4---------------------4---2h4p2-----2------------------------------
E------------------------------------5---4------------------------------

                          B7
e-----------------------------------------------------------------------
B-----------------------------------------------------------------------
G-----------------------------------------------------------------------
D-------------------------4-----------4-----------4---------------------
A---2h4p2-----2---4---2-------5---6-----------5h6-----6\4---2---2-------
E---------4-------------------------------------------------------------

                               E
e-----------------------------------------------------------------------
B-----------------------------------------------------------------------
G--------4--------------------------------------------------------------
D---/6-------6\4--p2-----------2----------------------------------------
A----------------------4---2--------------------------------------------
E-----------------------------------------------------------------------

                        E
e-----------------------------------------------------------------------
B-----------------------------------------------------------------------
G-----------------------------------------------------------------------
D---2.------------------------------------------------------------------
A-------2h4-2-----------2.----------------------------------------------
E---------------4\2-0---0.----------------------------------------------

20150406

ERIC CLAPTON TOP 10 LIVE LAYLA SOLOS TAB (SOLO #3)

Here we go ... the TOP 10 live Layla solos by sir Eric Clapton.
Solo #3 starts about 9:05 in the video.
See the TAB below.



ERIC CLAPTON TOP 10 LAYLA SOLOS TAB

PDF >>

Solo #3

e-----------------------------------------------------------------------
B----15~---15~---15~---15~---17-(18)-17~---15---------------------------
G---------------------------------------------17-14~-----\\\---///------
D-----------------------------------------------------------------------
A-----------------------------------------------------------------------
E-----------------------------------------------------------------------


e-----------------------------------------------------------------------
B----18(22)--------(18)-15.-15~-------15-18-15--18-15--18-15--18-15-----
G-----------------------------------17--------17-----17-----17-----17---
D-----------------------------------------------------------------------
A-----------------------------------------------------------------------
E-----------------------------------------------------------------------


e-----------------------------------------------------------------------
B-18-15--18-15--18-15--17-15--18-15--17-15--18-15--17-15--17(18)(17)----
G------17-----17-----17-----17-----17-----17-----17-----17--------------
D-----------------------------------------------------------------------
A-----------------------------------------------------------------------
E-----------------------------------------------------------------------



20150111

THE RYDERS SECRET LOVE TAB (LIVE IN TILBURG 2010)


The Ryders play a brilliant instrumental version of Secret Love live in Tilburg.
The lead guitarist is called Kurt Fröberg.
See the TAB of the lead guitar line and the chords here.



THE RYDERS SECRET LOVE TAB

PDF >>

Part 1

  A
e-----------------------------------------------------------------------
B-----------------------------------------------------------------------
G-----------------------------------------------------------------------
D-----2-2-----2-2-----2-2-----2-2-----2-2-----2-2-----2-2---------------
A-0---------------0---------------0---------------0---------------------
E---------0---------------0---------------0---------------0-------------
  x   x x x   x x x   x x x   x x x   x x x   x x x   x x x

  A
e-----------------------------------------------------------------------
B-----------------------------------------------------------------------
G-----------------------------------------------------------------------
D-1h2---1/2-----------0h2p0---------------------------------------------
A---------------------------4---0---2---4-------------------------------
E-------------------------------------------0---------------------------

  A                                   Bm     E
e-----------------------------------------------------------------------
B-----------------------------------------------------------------------
G-----------------------------------------------------------------------
D-------------------------0---2---4-------------------------------------
A-----0-----------2---4---------------2---------------------------------
E-0---------------------------------------------------------------------

20141130

THE ROLLING STONES DEAD FLOWERS TAB (MAIN SOLO PART)

Brilliant Keith Richards guitar solo on the '71 album in the middle of Dead Flowers.
There are some cool lead parts throughout the whole song, the main solo is at 2:35.
The great thing is that Keith Richards only uses one pentatonic scale.
See the solo TAB under the video.


THE ROLLING STONES DEAD FLOWERS SOLO TAB

PDF >>

2:35
        D                       A             G                  D
e------------------7----------------------------------------------------
B--------------------10-----------------------10------------------------
G-----7-9(11)-----------(11)(9)-----------7------(11)(9)p7-9-7---7~-----
D-7h9---------------------------------7h9---9------------------9--------
A-----------------------------------------------------------------------
E-----------------------------------------------------------------------

                                      A
e---------10------------------------------------------------------------
B------------10(12)---10-8-10-------------------------------------------
G-----7-----------------------9(11)---7---7-7~--------------------------
D-7h9---9-------------------------------9-------------------------------
A-----------------------------------------------------------------------
E-----------------------------------------------------------------------

        G                      D
e-----------------------------------------------------------------------
B-------10--------------------------------------------------------------
G-----7----(11)(9)p7-9-7---7~-------------------------------------------
D-7h9--------------------9----------------------------------------------
A-----------------------------------------------------------------------
E-----------------------------------------------------------------------

20141115

CAT EYE AUTUMN LEAVES TAB (LEAD GUITAR PARTS)


Finally found the name of the song I discovered earlier in a great mix by Tekiu.
There are some great lead guitar parts at 3:22, at 4:13 and then later at 5:04.
See the TAB of these brilliant guitar solos under the video.



CAT EYE AUTUMN LEAVES TAB

PDF >>

Solo at 3:22

e---8-10-11.--10-8.-----------------------------------------------------
B-8------------------11.--13~-------------8-11.--9-8.--11.--------------
G---------------------------------------8-------------------8h10~-------
D------------------------------------10---------------------------------
A-----------------------------------------------------------------------
E-----------------------------------------------------------------------


e-----------------------------------------------------------------------
B-----------------------------------------------------------------------
G------8.--8------------------------------------------------------------
D-8h10-------10----------8.--8------------------------------------------
A-------------------8h10-------8~---------------------------------------
E-----------------------------------------------------------------------


e---8-10-11.--10-8.-----------------------------------------------------
B-8------------------11.--13~-------------8-11.--9-8.--11.--------------
G---------------------------------------8-------------------8h10~-------
D------------------------------------10---------------------------------
A-----------------------------------------------------------------------
E-----------------------------------------------------------------------

20140608

10 YEARS KNIVES TAB

This is the number 10 song on the Minus the Machine album. 10 Years - Knives.
Use Dropped C# tuning (that is C#G#C#F#A#D#)
See the TAB under the video.



10 YEARS KNIVES TAB

PDF >>

Part 1

D#----------------------------------------------------------------------
A#----------------------------------------------------------------------
F#---------2--------------------2-------------3-------------------------
C#-------0--------------------0-------------0---------------------------
G#----------------------3-------------1---------------------------------
C#-0--------------------------------------------------------------------



Part 2

D#----------------------------------------------------------------------
A#----------------------------------------------------------------------
F#-------2-----2h3p2p0-2-------2--p0-------2----------------------------
C#-----0-----0---------------0-----------0------------------------------
G#-----------------------3-----------1----------------------------------
C#-0--------------------------------------------------------------------



Part 3

Guitar1
D#----------------------------------------------------------------------
A#----------------------------------------------------------------------
F#----------------------------------------------------------------------
C#-5/7-7-8\7-7--5/7-7-8\7-7--5-5-5-5-5-5--1-1-1-1-1-1-------------------
G#-3/5-5-6\5-5--3/5-5-6\5-5--3-3-3-3-3-3--1-1-1-1-1-1-------------------
C#----------------------------------------1-1-1-1-1-1-------------------

20130930

THE ROLLING STONES GOOD TIME WOMAN TAB


Some great lead guitar parts in Good Time Woman by the Rolling Stones.
Rhythm guitar in OPEN G tuning, lead guitar in standard tuning.
See the TAB under the video.



THE ROLLING STONES GOOD TIME WOMAN TAB

PDF >>

GP5 + GP6 >>

Intro

Rhythm Guitar
D-----------------------------------------------------------------------
B-----------------------------------------------------------------------
G-----------------------------------------------------------------------
D--------3/5--3h5--3h5--3h5--3h5--3h5--3h5--3h5--3h5--3p0-------------3-
G--3-3-3--------------------------------------------------5--3'---0-0---
D-----------------------------------------------------------------------


RG
D-----------------------------------------------------------------------
B-----------------------------------------------------------------------
G-----------------------------------------------------------------------
D--3/5--3h5--3h5--3h5--3h5--3h5--3h5--3h5--3h5--3p0-----------2---------
G---------------------------------------------------5--3'---0-----------
D-----------------------------------------------------------------------


RG
D-----------------------------------------------------------------------
B-----------------------------------------------------------------------
G-----------------------------------------------------------------------
D--3/5--3h5--3h5--3h5--3h5--3h5--3h5--3h5--3h5--3p0-----------2---------
G---------------------------------------------------5--3'---0-----------
D-----------------------------------------------------------------------

Lead Guitar
e--------15--15--15---------15--15--15----------------------------------
B-18(20)-------------18(20)-------------(20)-(18)p15--------------------
G----------------------------------------------------17-15'-------------
D-------------------------------------------------------------17~-------
A-----------------------------------------------------------------------
E-----------------------------------------------------------------------



20130820

ERIC CLAPTON SLOW DOWN LINDA TAB (LEAD PARTS)

Eric Clapton - Slow Down Linda is a cool rock and roll standard in the key of C.
Let's just check out the lead parts of the song.
TAB helps below.



ERIC CLAPTON SLOW DOWN LINDA TAB

PDF >>

0:04

e-----------------------------------------------------------------------
B-----------------------------------------------------------------------
G-5-----7---(9)--------------(9).--(9).--(9).--(9).--(9)(7)-5h7-5---\\\-
D---7-5-----------------------------------------------------------------
A-----------------------------------------------------------------------
E-----------------------------------------------------------------------

Verse 1

0:12

e-----------------------------------------------------------------------
B-----8-10--------------------------------------------------------------
G-7/9------9\7-5-----5~-------------------------------------------------
D----------------7-5------7-5.------------------------------------------
A-----------------------------------------------------------------------
E-----------------------------------------------------------------------