Showing posts with label lead guitar. Show all posts
Showing posts with label lead guitar. Show all posts

20131026

THIN LIZZY WHISKEY IN THE JAR TAB (LEAD GUITAR IN THE OFFICIAL MUSIC VIDEO)

Brilliant lead guitar parts in Thin Lizzy - Whiskey In The Jar.
Take your Fender Stratocaster and you can immediately start to play this brilliant intro solo and all the other solos. Use standard tuning but with 433 Hz. TAB below.


THIN LIZZY WHISKEY IN THE JAR TAB

PDF >>

Intro

e-8~-----------8---8p7p5-7~------------7---7p5--------------------------
B----------------------------------------------8---8(10)~~~-------------
G-----------------------------------------------------------------------
D-----------------------------------------------------------------------
A-----------------------------------------------------------------------
E-----------------------------------------------------------------------


e-----------------------------------------------------------------------
B-8p5-------------------------------------------------------------------
G-----7p4---------------------------------------------------------------
D---------7p5~----------------------------------------------------------
A-----------------------------------------------------------------------
E-----------------------------------------------------------------------


e-----------------------------------------------------------------------
B----------------5h8p5--------------------------------------------------
G------------4h7-------7---/9~------------------------------------------
D-7p5---h7--------------------------------------------------------------
A-----------------------------------------------------------------------
E-----------------------------------------------------------------------