Showing posts with label lesson. Show all posts
Showing posts with label lesson. Show all posts

20140720

OF MONSTERS AND MEN DIRTY PAWS TAB


There is a nice guitar intro part in Dirty Paws by Of Monsters And Men.
Basically there are a few popular chords with a CAPO on the 3rd.
See the TAB under the video.



OF MONSTERS AND MEN DIRTY PAWS TAB

PDF >>

Intro

e-----------------------------------------------------------------------
B-----------------------------------------------------------------------
G-------------2---------------0---------------0---------------0---------
D-----2---------------2---------------0h2-------------2-----------------
A-0-------0-------0-------0-------3-------3-------3-------3-------------
E-----------------------------------------------------------------------


e-----------------------------------------------------------------------
B---------------------------------------------1---------------1---------
G-------------0---------------0-------0h2-------------2-----------------
D-----2---------------2-----------3-------3-------3-------3-------------
A-3-------3-------3-------3---------------------------------------------
E-----------------------------------------------------------------------


e-----------------------------------------------------------------------
B-----------------------------------------------------------------------
G-------------2---------------0---------------0---------------0---------
D-----2---------------2---------------0h2-------------2-----------------
A-0-------0-------0-------0-------3-------3-------3-------3-------------
E-----------------------------------------------------------------------


20140618

BLACK LABEL SOCIETY QUEEN OF SORROW TAB (LIVE ACOUSTIC VERSION AT GUITAR CENTER)

Black Label Society - Queen of Sorrow played live at Guitar Center.
Both - Zakk's and Nick's guitar in the background - are tuned one step down.
See the TAB of Zakk Wylde's awesome playing under the video.



BLACK LABEL SOCIETY QUEEN OF SORROW TAB

PDF >>

Chords

  Fm     G#     Eb     C#
d-3------x------1------3------------------------------------------------
A-3------3------1------4------------------------------------------------
F-3------3------2------3------------------------------------------------
C-5------3------3------5------------------------------------------------
G-5------5------3------6------------------------------------------------
D-3------6------1------x------------------------------------------------


Nick plays some chords a little different

  G#     C#         C#
d-x------x----------x---------------------------------------------------
A-3------4----------8---------------------------------------------------
F-3------3--- or ---8---------------------------------------------------
C-3------1----------8---------------------------------------------------
G-1------1----------6---------------------------------------------------
D-x------x----------x---------------------------------------------------


Solo

d-----------------------------------------------------------------------
A-------------------------------------------6---6h8-6~------------------
F--------------3---5/7.--5~-------5-3-5/7-----7-------------------------
C-3h5~---5-3-5---5------------------------------------------------------
G-----------------------------------------------------------------------
D-----------------------------------------------------------------------


20140523

AVICII HEART UPON MY SLEEVE TAB


This short video shows the guitar parts of Heart Upon My Sleeve by Avicii.
Use standard tuning and a CAPO on the 1st fret.
See the TAB under the video.



AVICII HEART UPON MY SLEEVE TAB

PDF >>

Part 1

e-----------------------------------------------------0---0-------------
B---------0h1p0---------------------------0-----0-----5---3-------------
G-----0---------2-0-----0---0h2p0---0-------------------------2---0-----
D---2-----------------0-----------4-----1-----1-------------------------
A-3-----3-----------------------------2-----2-----2---------------------
E-------------------3-----3-----------------------------0---0-2---------


e-----------------------------------------------------------------------
B---------0h1p0---------------------------0-----0---------0-------------
G-----0---------2-0-----0---0h2p0---0-----------------------------------
D---2-----------------0-----------4-----1-----1-----1---1-----1.--------
A-3-----3-----------------------------2-----2-----2---2-----2-----------
E-------------------3-----3---------------------------------------------


Part 2

e-------------------------------------------------------------0---------
B---------0---------------0---------------0---------------3-------------
G-----0---------------0---------------0---------------2-----------------
D---2---------------2---------------0---------------0-------------------
A-----------------3-----3-----------------------------------------------
E-0-----0-------------------------3-----3---------2-----2---------------


20140518

SABICAS MALAGUENA TAB

Sabicas - one of Spain's best flamenco guitarists - plays Malaguena.
However, it is almost impossible to learn and cover Sabicas' playing, there are some parts that might be good to work out and practice like Part 5 and Part 7.
The TAB will help below.



SABICAS MALAGUENA TAB 

PDF >>
 
Intro

e-1-1-1-1-1-1-1-1--1-1-1-1-1-1-1-1--1-1-1-1-1-1-1-1--1-1-1-1-1-1-1-1----
B-1-1-1-1-1-1-1-1--1-1-1-1-1-1-1-1--1-1-1-1-1-1-1-1--1-1-1-1-1-1-1-1----
G-2-2-2-2-2-2-2-2--2-2-2-2-2-2-2-2--2-2-2-2-2-2-2-2--2-2-2-2-2-2-2-2----
D-3-3-3-3-3-3-3-3--3-3-3-3-3-3-3-3--3-3-3-3-3-3-3-3--3-3-3-3-3-3-3-3----
A-3-3-3-3-3-3-3-3--3-3-3-3-3-3-3-3--3-3-3-3-3-3-3-3--3-3-3-3-3-3-3-3----
E-1-1-1-1-1-1-1-1--1-1-1-1-1-1-1-1--1-1-1-1-1-1-1-1--1-1-1-1-1-1-1-1----


e-3-3-3-3-3-3-3-3--3-3-3-3-3-3-3-3--1-1-1-1-1-1-1-1--1-1-1-1-1-1-1-1----
B-3-3-3-3-3-3-3-3--3-3-3-3-3-3-3-3--1-1-1-1-1-1-1-1--1-1-1-1-1-1-1-1----
G-4-4-4-4-4-4-4-4--4-4-4-4-4-4-4-4--2-2-2-2-2-2-2-2--2-2-2-2-2-2-2-2----
D-5-5-5-5-5-5-5-5--5-5-5-5-5-5-5-5--3-3-3-3-3-3-3-3--3-3-3-3-3-3-3-3----
A-5-5-5-5-5-5-5-5--5-5-5-5-5-5-5-5--3-3-3-3-3-3-3-3--3-3-3-3-3-3-3-3----
E-3-3-3-3-3-3-3-3--3-3-3-3-3-3-3-3--1-1-1-1-1-1-1-1--1-1-1-1-1-1-1-1----


e-0-0-0-0-0-0-0-0--0-0-0-0-0-0-0-0--0-0-0-0-0-0-0-0--0------------------
B-0-0-0-0-0-0-0-0--0-0-0-0-0-0-0-0--0-0-0-0-0-0-0-0--0------------------
G-1-1-1-1-1-1-1-1--1-1-1-1-1-1-1-1--1-1-1-1-1-1-1-1--1------------------
D-2-2-2-2-2-2-2-2--2-2-2-2-2-2-2-2--2-2-2-2-2-2-2-2--2------------------
A-2-2-2-2-2-2-2-2--2-2-2-2-2-2-2-2--2-2-2-2-2-2-2-2--2------------------
E-0-0-0-0-0-0-0-0--0-0-0-0-0-0-0-0--0-0-0-0-0-0-0-0--0------------------


20140512

SIMPLE PLAN SAVE YOU TAB

See the guitar parts of Simple Plan - Save You in Eb tuning (half step down).
The video only shows the intro part (because it sounds cool) and basically the whole song is made up with these 4 chords: C#m B Aadd9 and E. Only the structure changes.
See the TAB of the complete song below.



SIMPLE PLAN SAVE YOU TAB

PDF >>

Intro

  "C#m"           "Add9"          "E"             "B"
D#---------0---------------0---------------0---------------0------------
A#---------5---------------0---------------0---------------0------------
F#---------6---------------2---------------1---------------4------------
C#-----6-------6-------2-------2-------2-------2-------4-------4--------
G#-4---------------0-------------------------------2--------------------
D#---------------------------------0------------------------------------


  "C#m"           "Add9"          "E"             "B"
D#---------0---------------0---------------0---------------0------------
A#---------5---------------0---------------0---------------0------------
F#---------6---------------2---------------1---------------4------------
C#-----6-------6-------2-------2-------2-------2-------4-------4--------
G#-4---------------0-------------------------------2--------------------
D#---------------------------------0------------------------------------


  "C#m"           "Add9"          "E"             "B"
D#---------0---------------0---------------0---------------0------------
A#---------5---------------0---------------0---------------0------------
F#---------6---------------2---------------1---------------4------------
C#-----6-------6-------2-------2-------2-------2-------4-------4--------
G#-4---------------0-------------------------------2--------------------
D#---------------------------------0------------------------------------

20140508

SLAINTE MHATH OX TAB

Slainte Mhath was a celtic fusion band and their track - Ox - is a guitar solo.
It sounds like played with a Telecaster and they use clean sound with some reverb.
See the TAB below (be careful with the random palm muted notes)



SLAINTE MHATH OX TAB

PDF >>

Part 1     (palm muted)

e-----------------------------------------------------------------------
B-----------------------------------------------------------------------
G-----------------------------------------------------------------------
D-------------------0-2-4-5-4-2p0---------------------------------------
A-2-----0-2-------2---------------0-2-2-0-2---------2-0---------0-------
E-----------0-0-----------------------------0-0-2-3-----2-3-0-0---------
             

e-----------------------------------------------------------------------
B-----------------------------------------------------------------------
G-----------------------------------------------------------------------
D-------------------0-2-4-5-4-2-0---------------------------------------
A-2---2-0-2-------2---------------0-2-2-0-2---------2-0---------0-------
E-----------0-000---------------------------0-0-2-3-----2-3-0-0---------


e-----------------------------------------------------------------------
B-----------------------------------------------------------------------
G-------------------------------------------4-------2-------------------
D---0-2-4-555-2-5-4-2-0-4-2-0-------0-2-4-5---5.--4---4-0-0-2-2-0-------
A-2---------------------------2-0-2-------------------------------------
E-----------------------------------------------------------------------


20140503

CAROLE KING YOU'VE GOT A FRIEND TAB (ACOUSTIC INSTRUMENTAL COVER BY PHIL MCGARRICK)

Very nice instrumental guitar cover of Carole King's song You've Got A Friend.
Phil McGarrick plays this version based on James Taylor's record from 1971.
See the TAB of this cool acoustic guitar version under the video.



YOU'VE GOT A FRIEND TAB

PDF >>

Part 1

e-----------------------------------------------------------------------
B-----------------------------------------------------------------------
G-2---4---4/6~-------------------6---6---6(7)---6~----------------------
D-----------------------------------------------------------------------
A-----------------------------------------------------------------------
E-----------------------------------------------------------------------


e-----------------------------------------------------------------------
B-7---9---9(10)------------------(10)---(10)(9)---7---------------------
G-------------------------------------------------------6~--------------
D-----------------------------------------------------------------------
A-----------------------------------------------------------------------
E-----------------------------------------------------------------------


e-----------------------------------------------------------------------
B-----------------------------------------------------------------------
G-4---6---7~------7~------7~--------------------------------------------
D-----------------------------------------------------------------------
A-----------------------------------------------------------------------
E-----------------------------------------------------------------------


20140427

WE ARE ONE (OLE OLA) TAB (THE OFFICIAL 2014 FIFA WORLD CUP SONG)

We Are One by Pitbull is the official 2014 FIFA World Cup song.
See how to play these few chords with a single guitar.
TAB under the video.



WE ARE ONE TAB

PDF >>

  D                                 Bm
e-----------------------------------7-----7-7-7-7-7--7-----7-7-7-7-7----
B-7-----7-7-7-7-7--7-----7-7-7-7-7--7-----7-7-7-7-7--7-----7-7-7-7-7----
G-7-----7-7-7-7-7--7-----7-7-7-7-7--7-----7-7-7-7-7--7-----7-7-7-7-7----
D-7-----7-7-7-7-7--7-----7-7-7-7-7--9-----9-9-9-9-9--9-----9-9-9-9-9----
A-5-----5-5-5-5-5--5-----5-5-5-5-5--9-----9-9-9-9-9--9-----9-9-9-9-9----
E-----------------------------------7-----7-7-7-7-7--7-----7-7-7-7-7----
          x x x x          x x x x          x x x x          x x x x

  E                                 C#
e-----------------------------------------------------------------------
B-9-----9-9-9-9-9--9-----9-9-9-9-9--6-----6-6-6-6-6--6-----6-6-6-6-6----
G-9-----9-9-9-9-9--9-----9-9-9-9-9--6-----6-6-6-6-6--6-----6-6-6-6-6----
D-9-----9-9-9-9-9--9-----9-9-9-9-9--6-----6-6-6-6-6--6-----6-6-6-6-6----
A-7-----7-7-7-7-7--7-----7-7-7-7-7--4-----4-4-4-4-4--4-----4-4-4-4-4----
E-----------------------------------------------------------------------
          x x x x          x x x x          x x x x          x x x x

  Bm                                F#m
e-7-----7-7-7-7-7--7-----7-7-7-7-7--------------------------------------
B-7-----7-7-7-7-7--7-----7-7-7-7-7--10----1010101010-10----1010101010---
G-7-----7-7-7-7-7--7-----7-7-7-7-7--11----1111111111-11----1111111111---
D-9-----9-9-9-9-9--9-----9-9-9-9-9--11----1111111111-11----1111111111---
A-9-----9-9-9-9-9--9-----9-9-9-9-9--9-----9-9-9-9-9--9-----9-9-9-9-9----
E-7-----7-7-7-7-7--7-----7-7-7-7-7--------------------------------------
          x x x x          x x x x          x x x x          x x x x


20140426

LAURA COX TESTING MY NEW GIBSON LES PAUL TAB (TESTING MY NEW GIBSON LES PAUL IN THE STYLE OF JOE BONAMASSA)

There is a cool video by Laura Cox testing her new Gibson guitar.
The original YouTube video title is: "Testing my new Gibson Les Paul - In the style of Joe Bonamassa" See the TAB under the video.


LAURA COX TESTING MY NEW GIBSON LES PAUL TAB

PDF >>

Part 1

e-----------5-8/10p8---------8------------------------------------------
B---------5----------8-----8-----8-----12----12----12\10--10----10-\----
G-------5--------------9-------9----------------------------------------
D-----7---------------------------10/12----12----12-----10----10--------
A-0---------------------------------------------------------------------
E-----------------------------------------------------------------------


e-----------5-8/10p8-------8--------------------------------------------
B---------5----------8-------8---8-----12----12----12\10--10----10------
G-------5--------------9-------9----------------------------------------
D-----7---------------------------10/12----12----12-----10----10--10----
A-0---------------------------------------------------------------------
E-----------------------------------------------------------------------


e-----------5-8/10p8---------8------------------------------------------
B---------5----------8-----8-----8-----12----12----12\10--10----10-\----
G-------5--------------9-------9----------------------------------------
D-----7---------------------------10/12----12----12-----10----10--------
A-0---------------------------------------------------------------------
E-----------------------------------------------------------------------


20140416

CHRISTINA PERRI A THOUSAND YEARS TAB (ACOUSTIC COVER BY NIJAY GABOY)

Nice acoustic guitar cover of 'Christina Perri - A Thousand Years' played by
Ni-jay Gaboy. In the video you can only see 1 beautiful acoustic guitar but on the record sometimes there are more lines. Use standard tuning with Capo on the 3rd.
See the TAB of the acoustic lines below.


A THOUSAND YEARS TAB

PDF >>

Part 1

e-----------------------------------------------------------------------
B-<15>-----------<15>-----------<15>------------------------------------
G-<15>-----------<15>-----------<15>-----------17~----------------------
D-<15>-----------<15>-----------<15>------------------------------------
A-----------------------------------------------------------------------
E-----------------------------------------------------------------------

GTR2
e--6--------------------------------------------------------------------
B--6-------------------------------------------6------------------------
G--3-------------------------------------------5------------------------
D--3--------------------------------------------------------------------
A--5--------------------------------------------------------------------
E--6-------------------------------------------5------------------------


e-----------------------------------------------------------------------
B-<15>-----------<15>-----------<15>------------------------------------
G-<15>-----------<15>-----------<15>-----------17~----------------------
D-<15>-----------<15>-----------<15>------------------------------------
A-----------------------------------------------------------------------
E-----------------------------------------------------------------------


20140414

KATIE MELUA NINE MILLION BICYCLES IN BEIJING TAB (COVER BY PHIL MCGARRICK)

Phil McGarrick plays a nice cover of Katie Melua's Nine Million Bicycles in Beijing.
This version was performed originally by the legendary guitarist, Hank Marvin.
See the TAB of this instrumental version under the video.



NINE MILLION BICYCLES IN BEIJING TAB

PDF >>

Part 1

e-----------------------------------------------------------------------
B-----5---7~------7---5-7---7-5-----------------------------------------
G-6-------------------------------6---4h5h6-6~--------------------4~----
D-----------------------------------------------------------4---7-------
A-----------------------------------------------------------------------
E-----------------------------------------------------------------------


e-----------------------------------------------------------------------
B-----------------------------------------------------------------------
G-------4---4/6-\-4-------------------4---4/6-\-4-----------------------
D-4---7---------------7-4~------4---7---------------7---7/9---7.--------
A-----------------------------------------------------------------------
E-----------------------------------------------------------------------


e-----------------------------------------------------------------------
B-----------------------------------------------------------------------
G-----------------------------------------------------------------------
D-----------------------------------------------------------------------
A-7/9---7---7~----------------------------------------------------------
E-----------------------------------------------------------------------


20140324

WHISKEY MYERS AMERICAN OULAWS TAB


Whiskey Myers - American Outlaws played with a Road Worn Fender Stratocaster.
Only the main parts of the song are shown in the video but there is the complete TAB of all the other parts and the cool solos too. Use dropped D tuning to get the right sound.
Good luck ...


WHISKEY MYERS AMERICAN OULAWS TAB

PDF >>

Intro

e-----------------------------------------------------------------------
B-------------------------------------------3---------------------------
G-------------------------------------------2---------------------------
D-5p3p0-3p0-0-------------------------------0---------------------------
A-------------3p0-0-3p0-0-3p2p0-------------0---------------------------
D------------------------------3'---0-------0---------------------------


e-----------------------------------------------------------------------
B-3-----3-----------------3---------------------------------------------
G-2-----2-----------------2---------------------------------------------
D-0-----0-----------------0---------------------------------------------
A-------------------------0---------------------------------------------
D---------3'--------0-----0---------------------------------------------


e-----------------------------------------------------------------------
B-3-----3-----------------3---------------------------------------------
G-2-----2-----------------2---------------------------------------------
D-0-----0-----------------0---------------------------------------------
A-------------------------0---------------------------------------------
D---------3'---3'---0-----0---------------------------------------------


20140314

FLAMENCO MYSTICO TAB

"Passion ... beauty ... mystical ... flamenco"  says the video description.
There are some nice guitar licks in this song.
See the TAB below.



FLAMENCO MYSTICO TAB

PDF >>

Part 1

e-------------------------------3h5---3~--------------------------------
B-5h6p5\3---------------------------------------------------------------
G-----------------------------------------------------------------------
D-----------------------------------------------------------------------
A-----------------------------------------------------------------------
E-----------------------------------------------------------------------


e-----------------------------------------------------------------------
B-6-5-6~--6~--6~--------------------------------------------------------
G---------------------------7~------------------------------------------
D-----------------------------------------------------------------------
A-----------------------------------------------------------------------
E-----------------------------------------------------------------------


e------------------------------------------5~----3---3~-----------------
B-----5-6-\-3~--3~---------------------------------6--------------------
G---7-------------------------------------------------------------------
D-7---------------------------------------------------------------------
A-----------------------------------------------------------------------
E-----------------------------------------------------------------------


20140310

SUMMER HOLIDAY TAB (COVER BY BURNS ERNST)


Burns Ernst plays a solo guitar cover of Summer Holiday by Cliff Richard.
He uses and old, red Fender Stratocaster.
See the TAB under the video.



SUMMER HOLIDAY TAB

PDF >>

Part 1

e-----------------------------------------------------------------------
B-----------------------------------------------------------------------
G-------4-----2---1-------------------1---------------------------------
D-------------------4---2---------4-----4---2---------------------------
A-2-------------------------------------------4-------------------------
E-----------------------------------------------------------------------


e-----------------------------------------------------------------------
B-----------------------------------------------------------------------
G-----4-2---1-----------1-2---------------------------------------------
D-------------4---2-----------4-----------------------------------------
A-2.--------------------------------------------------------------------
E-----------------------------------------------------------------------


e-----------------------------------------------------------------------
B-----------------------------------------------------------------------
G-------4-----2---1-------------------1---------------------------------
D-------------------4---2---------4-----4---2-----2---------------------
A-2-------------------------------------------4-------------------------
E-----------------------------------------------------------------------


20140306

JANA GANA MANA THE INDIAN NATIONAL ANTHEM TAB (COVER BY TAKAR NABAM)


Takar Nabam plays the Indian National Anthem (Jana Gana Mana) with a classical guitar. See the TAB under the video.



THE INDIAN NATIONAL ANTHEM TAB

PDF >>

e---0-2-2-2---2-2-2---2-2-0-2-3---2---2-2-0---0-0---0-2-----------------
B-3-------3-------3-------3-------3-------2-------2---3-------3---------
G-2-------2-------2-------0-------2-------2-----------2-----------------
D-0-------------------------------0-------------------0-----------------
A---------4-------2-----------------------0-------0---------------------
E-------------------------3---------------------------------------------


e-5---5-5-5---5-4-5---5-5-4-7-5---3---3-3-3---3-2---3-2-----------------
B-3-------3-------3---------------3-------3-------3---3-----------------
G---------------------------------0-------3-----------------------------
D-----------------------------------------5-----------0-----------------
A-5-------4-------2-------0-----------------------0---------------------
E---------------------------------3-------------------------------------


e-2---2-2-2---2-0-5-5-5---3---3---2---2-2-0-0-0-0---0-------------------
B-3-------1-------3-3-3---3-----3-3-------2-------2---3-----------------
G-2-------2---------------0-------2-------2-----------------------------
D-0-------0---------------2-------0-------------------0-----------------
A-------------------------3---------------0-------0---------------------
E-----------------3-----3-----------------------------------------------


20140305

GUNS 'N' ROSES KNOCKING ON HEAVENS DOOR INTRO TAB (LIVE IN PARIS 1992)

Slash plays a brilliant intro with a 12 stringed guitar. This is a live performance of Knockin' on Heavens Door with Guns'N'Roses in Paris, 1992.
See the TAB of this particular intro (0:00 - 2:53) under the video.
Tune your guitar a half note down to get the right sound.


GUNS 'N' ROSES KNOCKING ON HEAVENS DOOR TAB

PDF >>

Part 1

D#----------------------------------------------------------------------
A#----------------------------------------------------------------------
F#----------------------------------------------------------------------
C#-------------------------------------------------------0h2------------
G#-----7h5-----------------------5h7---------0--------------------------
D#-0---------------------------------3'--3'------3'--0------------------


D#----------------------------------------------------------------------
A#----------------------------------------------------------------------
F#----------------------------------------------------------------------
C#-2-0-------0----------------------------------------------------------
G#-----2-1-2---0h1p0---1---0h1p0---0h1p0---1---0h1p0---0h1p0---1--------
D#-------------------3---3-------3-------3---3-------3-------3---3------


D#----------------------------------------------------------------------
A#----------------------------------------------------------------------
F#---------------------------------------------------0h2---p0-----------
C#---------0-----0---------------------------0---2----------------------
G#-0h1p0h2---2p1---2p1-0---1---0h1p0---0h1h2---2------------------------
D#-----------------------3---3-------3----------------------------------


20140302

TITANIC THEME TAB (MY HEART WILL GO ON COVER BY VORDRAB)

Vordrab plays the Titanic theme with an electric guitar.
He tunes the guitar half note lower but it also works in standard tuning.
See the TAB in standard tuning under the video.



TITANIC THEME TAB

PDF >>

Part 1 (Clean)

e-----------------------------------------------------------------------
B----------------------------------------------------9-----10-9---------
G-8/9-------9-----9-8---9---\-----9-8---9-------11-------------11-------
D-----------------------------------------------------------------------
A-----------------------------------------------------------------------
E-----------------------------------------------------------------------


e-----------------------------------------------------------------------
B-----------------------------------------------------------------------
G-8/9-------9-----9-8---9-------8---------------------------------------
D-----------------------------------9-----------------------\-----------
A-----------------------------------------------------------------------
E-----------------------------------------------------------------------



e-----------------------------------------------------------------------
B----------------------------------------------------9-----10-9---------
G-8/9-------9-----9-8---9---\-----9-8---9-------11-------------11---9-8-
D-----------------------------------------------------------------------
A-----------------------------------------------------------------------
E-----------------------------------------------------------------------


20140227

NICK DRAKE TIME HAS TOLD ME TAB AND GUITAR LESSON


Nick Drake has a special voice and guitar playing style. Time Has Told Me is one of his cool songs. It is played in Dropped C ( that is CGCFAD ) There is a short video that shows how to play the main guitar parts ( intro, verse and chorus ) slowed down.
See the TAB under the video.


NICK DRAKE TIME HAS TOLD ME TAB

PDF >>

Intro

D---------------------------------------------------2-------------------
A-------------3---------3-------3-----5-----3-----3---------------------
F-------------0-----------0-----0-----0-----0-----2---------------------
C-------------------------------------------------0---------------------
G-0-----0---0-2---------0-2---0-2---0-3---0-2---0-----------------------
C-----------------------------------------------------------------------


D-2-------2-----3-----2-------------------------------------------------
A-3-------3-----3-----3-----3-------------------------------------------
F-2-------2-----4-----2-----0-------------------------------------------
C---0---0-0---0-0---0-0-------------------------------------------------
G-------------------------0-2-------------------------------------------
C-----------------------------------------------------------------------


D---------------------------2-------------------------------------------
A-3-------3-----5-----3-----3---3---------------------------------------
F-0-------0-----0-----0-----2-------------------------------------------
C---------------------------0-------------------------------------------
G-0-2---0-2---0-3---0-2---0---------------------------------------------
C-----------------------------------------------------------------------


20140216

MARTY SCHWARTZ MAJOR PENTATONIC SCALE SOLO TAB


Marty Schwartz plays a cool solo in the first 38 seconds of this video.
He uses mainly the major pentatonic scale in standard tuning.
See the TAB under the video.



MAJOR PENTATONIC SOLO TAB

PDF >>

Chords

e-2--------------0---------------3--------------------------------------
B-3--------------1---------------0--------------------------------------
G-2--------------0---------------0--------------------------------------
D-0--------------2---------------0--------------------------------------
A----------------3---------------2--------------------------------------
E--------------------------------3--------------------------------------


Solo

e----12(14).---12-10~---------------------------------------------------
B---x---------------------12.---12(13)-------(13)(12)p10----------------
G--x-----------------------------------------------------12-11~-----9.--
D-x---------------------------------------------------------------------
A-----------------------------------------------------------------------
E-----------------------------------------------------------------------


e-------------------------------------------------------10h12(14)-10~---
B-------------------------------------------------10h12-----------------
G-7h9p7---7~-------------------------------7-9/11-----------------------
D-------9--------9-7-------------------7h9------------------------------
A--------------------9\7p5-------5h7/9----------------------------------
E--------------------------7-5h7----------------------------------------


20140215

ADELE ROLLING IN THE DEEP TAB (LESSON BY JUSTIN SANDERCOE)

Justin Sandercoe teaches us clearly how to play Rolling In The Deep by Adele.
He plays the the first parts of the song with a cool singer, Salena. That makes it easy to understand how to play the song. If you have troubles with the chord changes see the TAB under the video.


ADELE ROLLING IN THE DEEP TAB

PDF >>

Intro

e-----------------------------------------------------------------------
B-----------------------------------------------------------------------
G-----------------------------------------------------------------------
D-10-10-10-10-10-10-10-10--10-10-10-10-10-10-10-10----------------------
A-10-10-10-10-10-10-10-10--10-10-10-10-10-10-10-10----------------------
E-8--8--8--8--8--8--8--8---8--8--8--8--8--8--8--8-----------------------
  x  x  x  x  x  x  x  x   x  x  x  x  x  x  x  x 


Verse

e-----------------------------------------------------------------------
B-----------------------------------------------------------------------
G-----------------------------------------------------------------------
D-10-10-10-10-10-10-10-10--10-5--5--5--5--5--5--5-----------------------
A-10-10-10-10-10-10-10-10--10-5--5--5--5--5--5--5-----------------------
E-8--8--8--8--8--8--8--8---8--3--3--3--3--3--3--3-----------------------
  x  x  x  x  x  x  x  x   x  x  x  x  x  x  x  x 

e-----------------------------------------------------------------------
B-----------------------------------------------------------------------
G-----------------------------------------------------------------------
D-5--8--8--8--8--8--8--8---8--5--5--5--5--8--8--8-----------------------
A-5--8--8--8--8--8--8--8---8--5--5--5--5--8--8--8-----------------------
E-3--6--6--6--6--6--6--6---6--3--3--3--3--6--6--6-----------------------
  x  x  x  x  x  x  x  x   x  x  x  x  x  x  x  x