Showing posts with label live. Show all posts
Showing posts with label live. Show all posts

20161230

JOE BONAMASSA BRIDGE TO BETTER DAYS TAB (GUITAR SOLO, LIVE)

Joe Bonamassa plays a brilliant guitar solo from 2:03 to 3:44
On YouTube: 'Joe Bonamassa - Bridge To Better Days (Arhus Denmark - July 2009)'
Download the GP5, GP6 and PDF files below.



JOE BONAMASSA BRIDGE TO BETTER DAYS SOLO TAB

GP5 + GP6 + PDF >>

e-------------5-----------------5---------------------------------------
B-------------5-----------------5--------------5/7-x-5-5----------------
G--------------------------------------------------x--------------------
D----5-7~-------7~-----5-7~-------7~-----7p5---5/7-x-5-5---4---4-5-5-6-6
A--0--------0--------0--------0--------0-----7--------------------------
E--------------------------------------------------------x-2---2-3-3-4-4
   x        x        x        x        x


e-------------5-----------------5---------------------------------------
B-------------5-----------------5--------------5/7-x-5-5----------------
G--------------------------------------------------x--------------------
D----5-7~-------7~-----5-7~-------7~-----7p5---5/7-x-5-5---4---4-5-5-6-6
A--0--------0--------0--------0--------0-----7--------------------------
E--------------------------------------------------------x-2---2-3-3-4-4
   x        x        x        x        x


e-------------5-----------------5---------------------------------------
B-------------5-----------------5--------------5/7-x-5-5----------------
G--------------------------------------------------x--------------------
D----5-7~-------7~-----5-7~-------7~-----7p5---5/7-x-5-5---4---4-5-5-6-6
A--0--------0--------0--------0--------0-----7--------------------------
E--------------------------------------------------------x-2---2-3-3-4-4
   x        x        x        x        x



20161121

THE SHADOWS SLEEPWALK TAB (LIVE FROM THE FINAL TOUR 2004)

The Shadows - Sleepwalk - live version from The Final Tour (2004)
Probably sounds better than the original record.
Lead guitar line + chords below.



THE SHADOWS SLEEPWALK TAB (LIVE)

GP5 + GP6 + PDF >>

Part 1
                            tremolo
e------------15~---15~--------------------------------------------------
B---------13------------------------------------------------------------
G---12/14----------------12-(11)-(12)~----------------------------------
D-----------------------------------------------------------------------
A-----------------------------------------------------------------------
E-----------------------------------------------------------------------

       tremolo
e-----------------------------------------------------------------------
B---13-(12)-(13)~------8---8~-------------------------------------------
G-----------------------------------------------------------------------
D-----------------------------------------------------------------------
A-----------------------------------------------------------------------
E-----------------------------------------------------------------------

                                   tremolo
e------------------------8~---------------------------------------------
B---6-8-8(9)---(8)---6\5---------8-(7)-(8)~-----------------------------
G-----------------------------------------------------------------------
D-----------------------------------------------------------------------
A-----------------------------------------------------------------------
E-----------------------------------------------------------------------


20160313

THE RYDERS GEORGY GIRL TAB (LIVE IN TILBURG 2010)


The Ryders play Georgy Girl instrumentally live in Tilburg.
See the TAB of the lead guitar line under the video.



THE RYDERS GEORGY GIRL TAB

PDF >>

Part 1

e---10-------10-9----9-7.-------7-10---9.-------------------------------
B---------10------10----------8-----------------------------------------
G------11-------------------9-------------------------------------------
D-----------------------------------------------------------------------
A-----------------------------------------------------------------------
E-----------------------------------------------------------------------


e---10-------10-9----9-7.-------7-10.-----------------------------------
B---------10------10----------8-----------------------------------------
G------11-------------------9-------------------------------------------
D-----------------------------------------------------------------------
A-----------------------------------------------------------------------
E-----------------------------------------------------------------------



Part 2

e-----------------------------------------------------------------------
B-----------------------------------------------------------------------
G-----------2~------4---2-2~--------------------------------------------
D---0-------------------------------0-2-4-5-4---0---2-------------------
A-------------------------------------------------------0-0~------------
E-----------------------------------------------------------------------


20160210

SLASH & MYLES KENNEDY PATIENCE TAB (ACOUSTIC LIVE @ MAX SESSIONS)

Slash & Myles Kennedy play Patience live at MAX Sessions.
They both use half step down tuning. The songs starts about 2:20.
See the TAB Slash's guitar playing under the video.


SLASH & MYLES KENNEDY PATIENCE TAB (ACOUSTIC)

PDF >>

Intro

eb---0-------0----------------------------------------------------------
Bb---1---------------3p1---0h1------------------------------------------
Gb---0-------------------------0---0-----0---------0-------0------------
Db---2-------------2-----2-------2-----0-----------------0---0-----0----
Ab---3-----------3-------------------2---------0-------2-------2--------
Eb---------------------------------------------------3-----------3------


eb--------------------------------------------0h2---2-3-2-----2---------
Bb--------2h3-2-------------2-3-2---------3-------3-------3-----3---8~--
Gb------2-------2---2-----2-------2-----2---2---------------2----/9-----
Db----2-----------2-----2-----------2-0---------------------------------
Ab--0-----------------0-------------------------------------------------
Eb----------------------------------------------------------------------


eb-------------------10-----------------------7-8-9-10------------------
Bb-----10-8-10(12)-----(12)(10)p8-10-8-10(12)----------10(12).---8~-----
Gb----------------------------------------------------------------------
Db----------------------------------------------------------------------
Ab----------------------------------------------------------------------
Eb----------------------------------------------------------------------


20160101

METALLICA NOTHING ELSE MATTERS AWESOME INTRO TAB (LIVE IN SIDNEY)

Awesome intro of Nothing Else Matters live in Sydney.
Until about 0:45 and then comes the original song.
Half-step down tuning. TAB under the video.


NOTHING ELSE MATTERS AWESOME INTRO TAB (LIVE)

PDF >>

eb----------------------------------------------------------------------
Bb----------------------------------------------------------------------
Gb----------------------------------------------------------------------
Db-----6-7-7/9\7p6------------------------------------------------------
Ab---7-------------7~---------------------------------------------------
Eb----------------------0-----------------------------------------------


eb----------------------------------------------------------------------
Bb----------------------------------------------------------------------
Gb-----9.---------------------------------------------------------------
Db----9----8-6----------------------------------------------------------
Ab---x---------9-7-6-7-7/9\7-6----------6-7-----------------------------
Eb-----------------------------7~-----------0---------------------------


eb----------------------------------------------------------------------
Bb----------------------------------------------------------------------
Gb----------------------------------------------------------------------
Db-----------------9-8-6------------------------------------------------
Ab---6-7-7/9\7-6---------9-7-6-7~---------------------------------------
Eb---------------7------------------0-----------------------------------


20151022

SLASH & MYLES KENNEDY STARLIGHT TAB (LIVE ACOUSTIC INTRO)

Slash & Myles Kennedy perform Starlight acoustic live at Max Sessions.
They both use half-step-down tuning.
See the TAB of the intro part below.


SLASH & MYLES KENNEDY STARLIGHT TAB

GP5 + GP6 + PDF >>

Intro

eb----------------------------------------------------------------------
Bb--------------------10----10.-----------------------------------------
Gb--------------------9h11--9.---9-------------9------------------------
Db---9h11~-----------------------9h11-9\7-9/11--------------------------
Ab---0------------------------------------------------------------------
Eb----------------------------------------------------------------------


eb----------------------------------------------------------------------
Bb-----------10----10.--------------------------------------------------
Gb-----------9h11--9.---9----9------------------------------------------
Db----------------------9h11--------------------------------------------
Ab---0------------------------------------------------------------------
Eb----------------------------------------------------------------------


eb-------------------------12-------------------------------------------
Bb----------9-------9h10--------10----9-------9-------9h10-9---9----9---
Gb--------------------------------9----------------------------9h11-9---
Db--------9-------9------9----------9-9-------9-----9-9----9------------
Ab----------------------------------------------------------------------
Eb--0-------------------------------------------------------------------



20150906

JOSH TURNER YOUR MAN TAB (LIVE AT THE BING LOUNGE, CHORDS AND SOLO)


Josh Turner plays an acoustic version of Your Man live at the Bing Lounge.
The TAB includes the lead guitar parts and the chords.



JOSH TURNER YOUR MAN TAB

PDF >>

Intro solo
                                   A
e-----------------------------------------------------------------------
B-----------------------------------------------------------------------
G------------------------------4.--2---------2--------------------------
D--------------------2.--4/6-------2h4p2-----2--------------------------
A-----------2.--/4-----------------------4------------------------------
E---0--/4---------------------------------------------------------------

                           E
e-----------------------------------------------------------------------
B-----------------------------------------------------------------------
G------------2----------------------------------------------------------
D--------2-------2h4---2.-----------------------------------------------
A---/4---------------------4---2h4p2-----2------------------------------
E------------------------------------5---4------------------------------

                          B7
e-----------------------------------------------------------------------
B-----------------------------------------------------------------------
G-----------------------------------------------------------------------
D-------------------------4-----------4-----------4---------------------
A---2h4p2-----2---4---2-------5---6-----------5h6-----6\4---2---2-------
E---------4-------------------------------------------------------------

                               E
e-----------------------------------------------------------------------
B-----------------------------------------------------------------------
G--------4--------------------------------------------------------------
D---/6-------6\4--p2-----------2----------------------------------------
A----------------------4---2--------------------------------------------
E-----------------------------------------------------------------------

                        E
e-----------------------------------------------------------------------
B-----------------------------------------------------------------------
G-----------------------------------------------------------------------
D---2.------------------------------------------------------------------
A-------2h4-2-----------2.----------------------------------------------
E---------------4\2-0---0.----------------------------------------------

20150719

ERIC CLAPTON COCAINE TAB (SOLO LIVE AT 2004 CROSSROADS GUITAR FESTIVAL)

Eric Clapton's live Cocaine solo from 2004 Crossroads Guitar Festival.
It starts at 1:14 ... enjoy.
See the TAB under the video.



ERIC CLAPTON COCAINE SOLO TAB

PDF >>

(1:14)

e-----------------------------------------------------------------------
B---17(19)--------------------------------------------------------------
G-----------------------------------------------------------------------
D-----------------------------------------------------------------------
A-----------------------------------------------------------------------
E-----------------------------------------------------------------------


e-----------------------------------------------------------------------
B---17(19)---(17)(19)---17(19)------17.-17~-----------15--15~---h17.----
G-------------------------------------------------------16--------------
D-----------------------------------------------------------------------
A-----------------------------------------------------------------------
E-----------------------------------------------------------------------


e-----------------------------------------------------------------12~---
B------------------12-15-12-----------------------------12-15(17)-------
G-------12-14-(16)----------14(16)-14p12--14--12-14(16)-----------------
D---/14---------------------------------14--14--------------------------
A-----------------------------------------------------------------------
E-----------------------------------------------------------------------



20150608

ERIC CLAPTON "CROSSROADS" TAB (SOLO)

Eric Clapton "Crossroads" - says the original video title.
There are 2 brilliant solo parts in this version - with that white Fender Stratocaster.
See the TAB under the video.



ERIC CLAPTON "CROSSROADS" SOLO TAB

PDF >>

Solo 1   (1:55)

e-----------------------------------------------------------------------
B---------13h15-13---------------13--15-13----------13.-----------------
G---///-----------14-14~---14~-----14-----14-14~------------------------
D-----------------------------------------------------------------------
A-----------------------------------------------------------------------
E-----------------------------------------------------------------------


e-----------------------------------------------------------------------
B---15(17)---(15)(17)-------15-13-15.--15'--13'-------------------------
G-----------------------------------------------------------------------
D-----------------------------------------------------------------------
A-----------------------------------------------------------------------
E-----------------------------------------------------------------------


e-----------------------------------------------------------------------
B---8-5-----------------------------------------------------------------
G-------7.--5---------------------5.------------------------------------
D-------------7-5---5h7-7~---7~-----------------------------------------
A-----------------7-----------------------------------------------------
E-----------------------------------------------------------------------


20150526

HANK MARVIN APACHE TAB (LIVE, 2000)


Hank Marvin (lead guitarist of the Shadows) playing Apache live in 2000.
His Fender Stratocaster still sounds brilliant.
See the TAB under the video.


HANK MARVIN APACHE TAB (LIVE)

GP5 + GP6 + PDF >>

Part 1

e-------------------------3/5-3-0-----------------------------3/5-3-0---
B-----1-3(4)(3)---------1-----------------1-3(4)(3)---------1-----------
G---2-----------------2-----------------2-----------------2-------------
D-----------------------------------------------------------------------
A-----------------------------------------------------------------------
E-----------------------------------------------------------------------



Part 2

e-----------------------------------------------------------------------
B-----------------------------------------------------------------------
G-----2-----------2-----------------------------------------------------
D---2---------2-------4-------2---0---2---------------------------------
A-----------------------------------------------------------------------
E-----------------------------------------------------------------------


e-----------------------------------------------------------------------
B-----------------------------------------------------------------------
G-------2-----------2---------------------------------------------------
D---2-----------2-------4-------2---0---2-------------------------------
A-----------------------------------------------------------------------
E-----------------------------------------------------------------------


20150501

THE RYDERS SWAY TAB (LIVE IN VERDEN 2014)


The Ryders play an instrumental version of Sway - live in Verden, 2014.
Brilliant sound with the good old Fender Stratocaster.
See the TAB of the lead guitar parts and the chords under the video.



THE RYDERS SWAY TAB

PDF >>

Part 1

e-----------------------------------------------------------------------
B-----------------------------------------------------------------------
G-10-10--9--9-7-7-6.----------------------------------------------------
D-12-12-10-10-8-8-7.----------------------------------------------------
A-----------------------------------------------------------------------
E-----------------------------------------------------------------------

              Gm    A         Gm    A         Dm
e-5-5-5-5-5-5-6---5-----------6---5-------5---5-------------------------
B-------------------8~--------------8~------8-----8-6~------------------
G-----------------------------------------------------------------------
D-----------------------------------------------------------------------
A-----------------------------------------------------------------------
E-----------------------------------------------------------------------

                Gm    A         Gm    A         Dm
e-------------------------------------------5---5-----------------------
B-6.----6---6---8.--6-5~----8-6-8.--6-5~----6-5-6---5h6p5---------------
G-----7---7---7-7.--7-6~--------7.--7-6~-----------------7~-------------
D-----------------------------------------------------------------------
A-----------------------------------------------------------------------
E-----------------------------------------------------------------------


20150406

ERIC CLAPTON TOP 10 LIVE LAYLA SOLOS TAB (SOLO #3)

Here we go ... the TOP 10 live Layla solos by sir Eric Clapton.
Solo #3 starts about 9:05 in the video.
See the TAB below.



ERIC CLAPTON TOP 10 LAYLA SOLOS TAB



Solo #3

e-----------------------------------------------------------------------
B----15~---15~---15~---15~---17-(18)-17~---15---------------------------
G---------------------------------------------17-14~-----\\\---///------
D-----------------------------------------------------------------------
A-----------------------------------------------------------------------
E-----------------------------------------------------------------------


e-----------------------------------------------------------------------
B----18(22)--------(18)-15.-15~-------15-18-15--18-15--18-15--18-15-----
G-----------------------------------17--------17-----17-----17-----17---
D-----------------------------------------------------------------------
A-----------------------------------------------------------------------
E-----------------------------------------------------------------------


e-----------------------------------------------------------------------
B-18-15--18-15--18-15--17-15--18-15--17-15--18-15--17-15--17(18)(17)----
G------17-----17-----17-----17-----17-----17-----17-----17--------------
D-----------------------------------------------------------------------
A-----------------------------------------------------------------------
E-----------------------------------------------------------------------



20150208

MIKE PINTO TEMPTATION TAB (LIVE AT THE MOBOOGIE LOFT)

Mike Pinto plays Temptation acoustically live at the MoBoogie.
Cool intro solo with some reggae chords.
See the TAB under the video.


MIKE PINTO TEMPTATION TAB

PDF >>

Intro

e-5-7-7-7-7.--7.--5-7-7-7--8-7.--5.--2-----------7-5--------------------
B-7-8-8-8-8.--8.--7-8-8-8-10-8.--7.--4---------------8-7-5-7-4.---------
G----------------------------------------------4------------------------
D-----------------------------------------------------------------------
A-----------------------------------------------------------------------
E-----------------------------------------------------------------------


e-5-7-7-7-7.--7.--5-7-7-7--8-7.--5.--2-----------2-2/3\2.--2---3.-------
B-7-8-8-8-8.--8.--7-8-8-8-10-8.--7.--4-----------4-4/5\4.--4---5.-------
G-----------------------------------------------------------------------
D-----------------------------------------------------------------------
A-----------------------------------------------------------------------
E-----------------------------------------------------------------------


e-5-7-7-7-7.--7.--5-7-7-7--8-7.--5.--2-----------7-5--------------------
B-7-8-8-8-8.--8.--7-8-8-8-10-8.--7.--4---------------8-7-5-7-4.---------
G----------------------------------------------4------------------------
D-----------------------------------------------------------------------
A-----------------------------------------------------------------------
E-----------------------------------------------------------------------


20150111

THE RYDERS SECRET LOVE TAB (LIVE IN TILBURG 2010)


The Ryders play a brilliant instrumental version of Secret Love live in Tilburg.
The lead guitarist is called Kurt Fröberg.
See the TAB of the lead guitar line and the chords here.



THE RYDERS SECRET LOVE TAB

PDF >>

Part 1

  A
e-----------------------------------------------------------------------
B-----------------------------------------------------------------------
G-----------------------------------------------------------------------
D-----2-2-----2-2-----2-2-----2-2-----2-2-----2-2-----2-2---------------
A-0---------------0---------------0---------------0---------------------
E---------0---------------0---------------0---------------0-------------
  x   x x x   x x x   x x x   x x x   x x x   x x x   x x x

  A
e-----------------------------------------------------------------------
B-----------------------------------------------------------------------
G-----------------------------------------------------------------------
D-1h2---1/2-----------0h2p0---------------------------------------------
A---------------------------4---0---2---4-------------------------------
E-------------------------------------------0---------------------------

  A                                   Bm     E
e-----------------------------------------------------------------------
B-----------------------------------------------------------------------
G-----------------------------------------------------------------------
D-------------------------0---2---4-------------------------------------
A-----0-----------2---4---------------2---------------------------------
E-0---------------------------------------------------------------------


20141130

WYCLEF JEAN ERIC CLAPTON WONDERFUL TONIGHT TAB (SOLOS PLAYED LIVE IN CARNEGIE HALL)

Great version of Wonderful Tonight played by Wyclef Jean and Eric Clapton live at Carnegie Hall. Nice and easy guitar playing with the special Fender Stratocaster.
See all the lead guitar parts TAB under the video.


WYCLEF JEAN ERIC CLAPTON WONDERFUL TONIGHT TAB

PDF >>

Intro solo (0:27)

e-----------------------------------------------------------------------
B-----10(12)-(10)(12)(10)p8.--10~-----------------------8h10p8~---------
G-7.------------------------------------------------7-9-----------------
D-----------------------------------------------------------------------
A-----------------------------------------------------------------------
E-----------------------------------------------------------------------


e-----------------------------------------------------------------------
B-----8.--10(12).--(12)(10)p8-----8~------10-8---8~--10.--8~----\-------
G-7-9-------------------------9.------9.-------9------------------------
D-----------------------------------------------------------------------
A-----------------------------------------------------------------------
E-----------------------------------------------------------------------


e-----------------------------------------------------------------------
B-----10(12)-(10)(12)(10)p8---10~---------------------------------------
G-7--------------------------------------7.-----------------------------
D-----------------------------------------------------------------------
A-----------------------------------------------------------------------
E-----------------------------------------------------------------------

20141019

BRITTNI PAIVA LIGHTS UKULELE TAB


Brittni Paiva plays Lights with a nice Ukulele and a Boss ME-70 pedal.
She uses "low G standard" tuning.
TAB under the video.



BRITTNI PAIVA LIGHTS UKULELE TAB

PDF >>

Loop 1

A-3---x-3---x-3---x-3---x-3-3-3-3-2---x-2---x-2---x-2---x-2-2-2-2-------
E-----------------------------------------------------------------------
C-----------------------------------------------------------------------
G-----------------------------------------------------------------------


A-3---x-3---x-3---x-3---x-3-3-3-3-3---x-3---x-3---x-3---x-3-3-3-3-------
E-----------------------------------------------------------------------
C-----------------------------------------------------------------------
G-----------------------------------------------------------------------


Loop 2

A-----------------------------------------------------------------------
E-------5-----------------5-------------3-----------------3-------------
C-------------4---------------4---------------2---------------0---------
G-2-------------------2-----------0-------------------0-----------------


A-----------------------------------------------------------------------
E-------5-----------------5-------------5-----------------5-------------
C-------------5---------------5---------------5---------------5---------
G-5-------------------5-----------7-------------------7-----------------


20140713

SLASH & MYLES KENNEDY SWEET CHILD O' MINE TAB (ACOUSTIC, LIVE, MAX SESSIONS)

Slash and Myles Kennedy play Sweet Child O' Mine on the Australian Max Sessions.
Two acoustic guitars in half step down tuning and Myles' voice.
See the TAB of Slash's playing under the video.


SLASH & MYLES KENNEDY SWEET CHILD O' MINE TAB

PDF >>

Part 1

D#-------------15----14----------------15----14-------------------------
A#----15----------------------15----------------------------------------
F#-------14-12----14----14-------14-12----14----14----------------------
C#-12----------------------12-------------------------------------------
G#----------------------------------------------------------------------
D#----------------------------------------------------------------------


D#-------------15----14----------------15----14-------------------------
A#----15----------------------15----------------------------------------
F#-------14-12----14----14-------14-12----14----14----------------------
C#-14----------------------14-------------------------------------------
G#----------------------------------------------------------------------
D#----------------------------------------------------------------------



D#-------------15----14----------------15----14-------------------------
A#----15----------------------15----------------------------------------
F#-12----14-12----14----14-12----14-12----14----14----------------------
C#----------------------------------------------------------------------
G#----------------------------------------------------------------------
D#----------------------------------------------------------------------


20140618

BLACK LABEL SOCIETY QUEEN OF SORROW TAB (LIVE ACOUSTIC VERSION AT GUITAR CENTER)

Black Label Society - Queen of Sorrow played live at Guitar Center.
Both - Zakk's and Nick's guitar in the background - are tuned one step down.
See the TAB of Zakk Wylde's awesome playing under the video.



BLACK LABEL SOCIETY QUEEN OF SORROW TAB

PDF >>

Chords

  Fm     G#     Eb     C#
d-3------x------1------3------------------------------------------------
A-3------3------1------4------------------------------------------------
F-3------3------2------3------------------------------------------------
C-5------3------3------5------------------------------------------------
G-5------5------3------6------------------------------------------------
D-3------6------1------x------------------------------------------------


Nick plays some chords a little different

  G#     C#         C#
d-x------x----------x---------------------------------------------------
A-3------4----------8---------------------------------------------------
F-3------3--- or ---8---------------------------------------------------
C-3------1----------8---------------------------------------------------
G-1------1----------6---------------------------------------------------
D-x------x----------x---------------------------------------------------


Solo

d-----------------------------------------------------------------------
A-------------------------------------------6---6h8-6~------------------
F--------------3---5/7.--5~-------5-3-5/7-----7-------------------------
C-3h5~---5-3-5---5------------------------------------------------------
G-----------------------------------------------------------------------
D-----------------------------------------------------------------------


20140531

ERIC CLAPTON LAYLA TAB (LIVE IN HYDE PARK 1996)


The 1996 Hyde Park live acoustic version of Layla by Eric Clapton.
See the TAB of the complete song - with all the solos - below.



ERIC CLAPTON LAYLA TAB

PDF >>
 
Intro solo

e-----------------------------------------------------------------------
B-8/10~---10~-----------------------------------------------------------
G-----------------------------------------------------------------------
D-----------------------------------------------------------------------
A-----------------------------------------------------------------------
E-----------------------------------------------------------------------


e-----------------------------------------------------------------------
B-8h10p8-8-10-8h10p8-6-8-6h8---6.--5~-----------------------------------
G-----------------------------------------------------------------------
D-----------------------------------------------------------------------
A-----------------------------------------------------------------------
E-----------------------------------------------------------------------


e-----------------------------------------------------------------------
B-5-6-6/8---6-5---------------------------------------------------------
G---------------7-5---7---5---7~----------------------------------------
D-------------------7-------7-------------------------------------------
A-----------------------------------------------------------------------
E-----------------------------------------------------------------------


20140401

ERIC CLAPTON OLD LOVE SOLO TAB (LIVE AT ROYAL ALBERT HALL 1990)

Eric Clapton plays Old Love at Royal Albert Hall in 1990.
The original video title says: 'Eric Clapton Old Love 24 Nights Royal Albert Hall 1990'
There are 2 awesome guitar solos by 4:30 and by 8:44 till the end.
See the TAB of these solos under the video.


ERIC CLAPTON OLD LOVE SOLO TAB

PDF >>

Solo by 4:30

e-----------------------------------------------------------------------
B-15(17)---------------~~~~~--------------------------------------------
G-----------------------------------------------------------------------
D-----------------------------------------------------------------------
A-----------------------------------------------------------------------
E-----------------------------------------------------------------------


e-----------------------------------------------------------------------
B-(17)(15)p13-15.--15.--15.--15.--15(17)--------(15)p13-----------------
G-------------------------------------------------------14-14-14--\\\---
D-----------------------------------------------------------------------
A-----------------------------------------------------------------------
E-----------------------------------------------------------------------


e-----------------------------------------------------------------------
B-13---15---13h15p13-12---13---12h13p12---------------------------------
G---------------------------------------14-12-14-12---------------------
D---------------------------------------------------14\12p10------------
A------------------------------------------------------------12-12~-----
E-----------------------------------------------------------------------