Showing posts with label magic carpet. Show all posts
Showing posts with label magic carpet. Show all posts

20170912

THE DAKOTAS MAGIC CARPET TAB (INSTRUMENTAL GUITAR COVER BY JOHN MASON)


The Dakotas - Magic Carpet instrumental guitar cover by John Mason.
Download the Guitar Pro 6 tab and the PDF below.



THE DAKOTAS MAGIC CARPET TAB

GP5 + GP6 + PDF >>

Part 1

e---0-------------------------------0-----------------------------------
B---0-------------------------------0---------------2-------4-----------
G---0-------------------------------0---------------2-------4-----------
D---2-------------------------------2---------------2-------4-----------
A---2-------------------------------2---------------0-------2-----------
E---0-------------------------------0-----------------------------------


e-----------------------------------------------------------------------
B-----------------------------------------------------------------------
G---------------0---4---2-----------------------------------------------
D-------2-----2-----------------4-----0-2~------------------------------
A---2-------------------------------------------------------------------
E-----------------------------------------------------------------------


e-----------------------------------------------------------------------
B-----------------------------------------------------------------------
G---------------0---4---6~------7-----6-4~------------------------------
D-------2-----2---------------------------------------------------------
A---2-------------------------------------------------------------------
E-----------------------------------------------------------------------