Showing posts with label matevzb. Show all posts
Showing posts with label matevzb. Show all posts

20170409

DEL SHANNON RUNAWAY TAB (INSTRUMENTAL GUITAR COVER)


Del Shannon - Runaway instrumental guitar cover played by MatevzB.
See the TAB under the video.



DEL SHANNON RUNAWAY INSTRUMENTAL TAB

GP5 + GP6 + PDF >>

e-----------------------------------------------------------------------
B---------------------------------5-3-----------------------------------
G-------2-------2/4---2---4-5---------------4---------------------------
D-----------------------------------------------------------------------
A-----------------------------------------------------------------------
E-----------------------------------------------------------------------


e-----------------------------------------------------------------------
B-----------------3-----------------------------------------------------
G---2-----2-4-------5~------2-------------------------------------------
D-----5-----------------------------------------------------------------
A-----------------------------------------------------------------------
E-----------------------------------------------------------------------


e-----------------------------------------------------------------------
B-----------------------------------------------------------------------
G-----------2-----2/5---4~----------------------------------------------
D---5-3---5-------------------------------------------------------------
A-----------------------------------------------------------------------
E-----------------------------------------------------------------------