Showing posts with label metallica. Show all posts
Showing posts with label metallica. Show all posts

20170425

CHRIS CORNELL ONE TAB (U2 MUSIC WITH METALLICA LYRICS)

Chris Cornell sings "One" with a single acoustic guitar.
U2 music with Metallica lyrics.
See the TAB below.



CHRIS CORNELL ONE TAB

GP5 + GP6 + PDF >>

Intro

e---0-------0-----0-0-0-0---0-0-0-0-2-------2-----2-2-2-2---2-2-2-2-----
B---1-------1-----1-1-1-0h1-1-1-1-1-1-------1-----1-1-1-0h1-1-1-1-1-----
G---2-------2-----2-2-2-2---2-2-2-2-2-------2-----2-2-2-2---2-2-2-2-----
D---2-------2-----2-2-2-2---2-2-2-2-0-------0-----0-0-0-0---0-0-0-0-----
A---0-------0-----0-0-0-0---0-0-0-0-------------------------------------
E-----------------------------------------------------------------------


e---0-----0-0-----0-0-0-0---0-0-0---3---3-3-3---3-3-3-3-3---3-3---------
B---1-----1-1-----1-1-1-0h1-1-1-1-0-0---0-0-1---1-1-1-0-0h1-1-1-1-------
G---2-----2-2-----2-2-2-2---2-2-2-0-0---0-0-0---0-0-0-0-0---0-0-0h2-----
D---3-----3-3-----3-3-3-3---3-3-3-0-0---0-0-0---0-0-0-0-0---0-0-0h2-----
A-----------------------------------2---2-2-2---2-2-2-2-2---2-2---------
E-----------------------------------3---3-3-3---3-3-3-3-3---3-3---------


e---0-----0-0---0-0-----0-----0-0-0-2-------2-----2-----2-----2-2-2-----
B---1-----1-1---1-0h1p0-1-----1-1-1-1-------1-----0h1p0-1-----1-1-1-----
G---2-----2-2---2-------2-----2-2-2-2-------2-----------2-----2-2-2-----
D---2-----2-2---2-------2-----2-2-2-0-------0-----------0-----0-0-0-----
A---0-----0-0---0-------0-----0-0-0-------------------------------------
E-----------------------------------------------------------------------


20160101

METALLICA NOTHING ELSE MATTERS AWESOME INTRO TAB (LIVE IN SIDNEY)

Awesome intro of Nothing Else Matters live in Sydney.
Until about 0:45 and then comes the original song.
Half-step down tuning. TAB under the video.


NOTHING ELSE MATTERS AWESOME INTRO TAB (LIVE)

PDF >>

eb----------------------------------------------------------------------
Bb----------------------------------------------------------------------
Gb----------------------------------------------------------------------
Db-----6-7-7/9\7p6------------------------------------------------------
Ab---7-------------7~---------------------------------------------------
Eb----------------------0-----------------------------------------------


eb----------------------------------------------------------------------
Bb----------------------------------------------------------------------
Gb-----9.---------------------------------------------------------------
Db----9----8-6----------------------------------------------------------
Ab---x---------9-7-6-7-7/9\7-6----------6-7-----------------------------
Eb-----------------------------7~-----------0---------------------------


eb----------------------------------------------------------------------
Bb----------------------------------------------------------------------
Gb----------------------------------------------------------------------
Db-----------------9-8-6------------------------------------------------
Ab---6-7-7/9\7-6---------9-7-6-7~---------------------------------------
Eb---------------7------------------0-----------------------------------


20151126

GABRIELLA QUEVEDO NOTHING ELSE MATTERS TAB (FINGERSTYLE GUITAR COVER OF THE METALLICA SONG)

Gabriella Quevedo's fingerstyle guitar cover of Nothing Else Matters.
Original song by Metallica.
See the TAB under the video.



GABRIELLA QUEVEDO NOTHING ELSE MATTERS TAB

GP5 + GP6 + PDF >>

Intro

e-----------------------------------------------------------------------
B---------------0-----------------------0-------------------------------
G---------------0-----------------------0-------------------------------
D-----------2-------2---------------2-------2---------------------------
A-------2---------------2-------2---------------2-----------------------
E---0-----------------------0-------------------------------------------


e-----------------------------------------------------------------------
B---------------0-----------------------0-------0.----------------------
G---------------0-----------------------0-------------------------------
D-----------2-------2---------------2-------2---------------------------
A-------2---------------2-------2---------------------------------------
E---0-----------------------0-------------------------------------------


e-----------------------------------------------------------------------
B---0-----------0-------------------------------------------------------
G-----------------0-----------------4.--5---4h5p4-2---4---2h4p2---------
D-----------2-------2---------------2.------2---------2---------2.------
A-------2-----------------------2---------------------------------------
E---0-------------------3'--0-------------------------------------------


20121217

METALLICA NOTHING ELSE MATTERS SOLO TAB


Metallica - Nothing Else Matters guitar solo cover.
Use heavy distortion and light strings.
See the TAB below.



METALLICA NOTHING ELSE MATTERS SOLO TAB


e-----------------------------------------------------------------------
B-15--------------------------------------------------------------------
G-14(16)-----14(16)(14)-12~------14-12-11h12p11----11-------------------
D-----------------------------------------------12----12/14~------------
A-----------------------------------------------------------------------
E-----------------------------------------------------------------------


e--------------------12-----------12------------------------------------
B-----------------12-----------12----15p12----12------------------------
G-12-14-12-14(16)-------14(16)-------------15----15-14-12(14)(12)-------
D-----------------------------------------------------------------14----
A-----------------------------------------------------------------------
E-----------------------------------------------------------------------


e----------------------/15---14--------15---14--------------------------
B-14.--14-13----------------------12------------------------------------
G-14.--14-13-12~~~\-----------------------------------------------------
D-----------------------------------------------------------------------
A-----------------------------------------------------------------------
E-----------------------------------------------------------------------