Showing posts with label myles kennedy. Show all posts
Showing posts with label myles kennedy. Show all posts

20170329

SLASH PARADISE CITY INTRO TAB (MADE IN STOKE)


Slash plays a cool intro in the first 47 seconds. Paradise City - Made In Stoke.
Half-step down tuning - as usual.
Good luck!



SLASH PARADISE CITY INTRO TAB (MADE IN STOKE)

PDF >>

eb----------------------------------------3-----------------------------
Bb-----------1----------------------------3-------0h1p0-----------------
Gb--------------------------------0-------0-------0---------------------
Db-----0h2--------------------0h2---0-------------0---------------------
Ab---3-----3-----3------------------------------------------------------
Eb------------------------------------3---------------------------------


eb----------------------------------------------------------------------
Bb-----------------1----------1h3---1h3---1---0-------------------------
Gb----------------------------0-----0-------------------0---------------
Db-----------0h2--------------------------------------0-----------------
Ab-----2h3-------3----------------------------------2-------------------
Eb---3-----3--------------------------------------3---------------------


eb----------------------------------------------------------------------
Bb----------------------------------------------------------------------
Gb---0h2-0-----0--------------------------------------------------------
Db---------0h2---0---------------0h2------------------------------------
Ab-------------------------2h3------------------------------------------
Eb-----------------------3-----3----------------------------------------


20161013

SLASH & MYLES KENNEDY BACK FROM CALI TAB (UNPLUGGED)

Slash & Myles Kennedy perform 'Back From Cali' with 2 acoustic guitars.
Great unplugged version, half-step down tuning.
Download the Guitar Pro Tab of the intro part.



SLASH & MYLES KENNEDY BACK FROM CALI TAB

GP5 + GP6 + PDF >>

Intro

eb-----------------------------------------------------------------------
Bb----------0-------3-0.--0.--0-----0-------x-------5\3.--3--------------
Gb---4------2h4.----4-4.--2.--4p2.--1~------x-------------2---2----------
Db---4------4-------4-----4.--4-----2~------x---4/6-6\4.--4--------------
Ab---2----------------------------------------------------------0.-------
Eb-----------------------------------------------------------------------


eb-----------------------------------------------------------------------
Bb----------0-------3-0.--0.--0-----0-------x-------5\3.--3--------------
Gb---4------2h4.----4-4.--2.--4p2.--1~------x-------------2---2----------
Db---4------4-------4-----4.--4-----2~------x---4/6-6\4.--4--------------
Ab---2----------------------------------------------------------0.-------
Eb-----------------------------------------------------------------------


eb-----------------------------------------------------------------------
Bb----------0-------3-0.--0.--0-----0-------x-------5\3.--3--------------
Gb---4------2h4.----4-4.--2.--4p2.--1~------x-------------2---2----------
Db---4------4-------4-----4.--4-----2~------x---4/6-6\4.--4--------------
Ab---2----------------------------------------------------------0.-------
Eb-----------------------------------------------------------------------

 

20160210

SLASH & MYLES KENNEDY PATIENCE TAB (ACOUSTIC LIVE @ MAX SESSIONS)

Slash & Myles Kennedy play Patience live at MAX Sessions.
They both use half step down tuning. The songs starts about 2:20.
See the TAB Slash's guitar playing under the video.


SLASH & MYLES KENNEDY PATIENCE TAB (ACOUSTIC)

PDF >>

Intro

eb---0-------0----------------------------------------------------------
Bb---1---------------3p1---0h1------------------------------------------
Gb---0-------------------------0---0-----0---------0-------0------------
Db---2-------------2-----2-------2-----0-----------------0---0-----0----
Ab---3-----------3-------------------2---------0-------2-------2--------
Eb---------------------------------------------------3-----------3------


eb--------------------------------------------0h2---2-3-2-----2---------
Bb--------2h3-2-------------2-3-2---------3-------3-------3-----3---8~--
Gb------2-------2---2-----2-------2-----2---2---------------2----/9-----
Db----2-----------2-----2-----------2-0---------------------------------
Ab--0-----------------0-------------------------------------------------
Eb----------------------------------------------------------------------


eb-------------------10-----------------------7-8-9-10------------------
Bb-----10-8-10(12)-----(12)(10)p8-10-8-10(12)----------10(12).---8~-----
Gb----------------------------------------------------------------------
Db----------------------------------------------------------------------
Ab----------------------------------------------------------------------
Eb----------------------------------------------------------------------


20151022

SLASH & MYLES KENNEDY STARLIGHT TAB (LIVE ACOUSTIC INTRO)

Slash & Myles Kennedy perform Starlight acoustic live at Max Sessions.
They both use half-step-down tuning.
See the TAB of the intro part below.


SLASH & MYLES KENNEDY STARLIGHT TAB

GP5 + GP6 + PDF >>

Intro

eb----------------------------------------------------------------------
Bb--------------------10----10.-----------------------------------------
Gb--------------------9h11--9.---9-------------9------------------------
Db---9h11~-----------------------9h11-9\7-9/11--------------------------
Ab---0------------------------------------------------------------------
Eb----------------------------------------------------------------------


eb----------------------------------------------------------------------
Bb-----------10----10.--------------------------------------------------
Gb-----------9h11--9.---9----9------------------------------------------
Db----------------------9h11--------------------------------------------
Ab---0------------------------------------------------------------------
Eb----------------------------------------------------------------------


eb-------------------------12-------------------------------------------
Bb----------9-------9h10--------10----9-------9-------9h10-9---9----9---
Gb--------------------------------9----------------------------9h11-9---
Db--------9-------9------9----------9-9-------9-----9-9----9------------
Ab----------------------------------------------------------------------
Eb--0-------------------------------------------------------------------



20140713

SLASH & MYLES KENNEDY SWEET CHILD O' MINE TAB (ACOUSTIC, LIVE, MAX SESSIONS)

Slash and Myles Kennedy play Sweet Child O' Mine on the Australian Max Sessions.
Two acoustic guitars in half step down tuning and Myles' voice.
See the TAB of Slash's playing under the video.


SLASH & MYLES KENNEDY SWEET CHILD O' MINE TAB

PDF >>

Part 1

D#-------------15----14----------------15----14-------------------------
A#----15----------------------15----------------------------------------
F#-------14-12----14----14-------14-12----14----14----------------------
C#-12----------------------12-------------------------------------------
G#----------------------------------------------------------------------
D#----------------------------------------------------------------------


D#-------------15----14----------------15----14-------------------------
A#----15----------------------15----------------------------------------
F#-------14-12----14----14-------14-12----14----14----------------------
C#-14----------------------14-------------------------------------------
G#----------------------------------------------------------------------
D#----------------------------------------------------------------------



D#-------------15----14----------------15----14-------------------------
A#----15----------------------15----------------------------------------
F#-12----14-12----14----14-12----14-12----14----14----------------------
C#----------------------------------------------------------------------
G#----------------------------------------------------------------------
D#----------------------------------------------------------------------


20131209

SLASH & MYLES KENNEDY CIVIL WAR TAB (LIVE, ACOUSTIC, MAX SESSIONS)

Legendary acoustic live version of Civil War with Slash and Myles Kennedy. 
Slash plays awesome guitar solos in half step down tuning.
See the TAB under the video.



SLASH & MYLES KENNEDY CIVIL WAR TAB

PDF >>

Intro

D#----------------------------------------------------------------------
A#----------------------------------------------------------------------
F#-----------------0-------------------------------0--------------------
C#---------2-----------2-------2-----------2-----------2-------0--------
G#-----2-------2-----------2-----------2-------2-----------0h2----------
D#-0-------------------------------0------------------------------------


D#----------------------------------------------------------------------
A#----------------------------------------------------------------------
F#-----------------0-------------------------------0--------------------
C#---------0-----------0-------0-----------0-----------0-------0--------
G#-----2-------2-----------2-----------2-------2-----------0h2----------
D#-3-------------------------------3------------------------------------


D#----------------------------------------------------------------------
A#----------------------------------------------------------------------
F#-----------------0-------------------------------0--------------------
C#---------2-----------2-------2-----------2-----------2-------0--------
G#-----2-------2-----------2-----------2-------2-----------0h2----------
D#-0-------------------------------0------------------------------------