Showing posts with label nathalie jost. Show all posts
Showing posts with label nathalie jost. Show all posts

20170821

AUTUMN LEAVES TAB (CLASSICAL GUITAR COVER BY NATHALIE JOST)


Autumn Leaves classical guitar cover played by Nathalie Jost
Download the tab below.



AUTUMN LEAVES FINGERSTYLE TAB

GP6 + GP5 + PDF >>

Part 1

e-----------1----------------------------------0------------------------
B------0-1------------3---1--0--------------0---------------------------
G---2-------------2----------------0------2-----------------------------
D-------------0---------------------------------------------------------
A-----------------------------------------------------------------------
E------------------------------3-------3--------------------------------


e--------------0---------0----------------------------------------------
B-------1---0----0-------1-----------3----------------------------------
G--------------------2----------0-2-------------------------------------
D----------------------------3------------------------------------------
A---3-------2--------0--------------------------------------------------
E-----------------------------------------------------------------------


e-----------------------------------------------------------------------
B--------------3--------------------------------------------------------
G-------2--------2--1---------------------------------------------------
D-------------------------2---------------------------------------------
A-----------------------------------------------------------------------
E---1-------1---------0-------0--2-4------------------------------------