Showing posts with label notes. Show all posts
Showing posts with label notes. Show all posts

20160521

RIOT V TAKE ME BACK TAB (LEAD GUITAR LINE - GUITAR PRO TAB)

Riot V - Take Me Back lead guitar line.
See the TAB under the video.



RIOT - TAKE ME BACK TAB

GP5 + GP6 + PDF >>

Intro

e-----------------------------------------------------------------------
B-----------------------------------------------------------------------
G----------------------------0---2-------5---7~-------------------------
D----------------------------0---2-------5---7~-------------------------
A---5p3p0-6p0-10-7p0-6-5p3p0-------0-0-0--------------------------------
E-----------------------------------------------------------------------
                                   x x x

e-----------------------------------------------------------------------
B----------------------------------------3------------------------------
G----------------------------0---2-------0------------------------------
D----------------------------0---2-------0------------------------------
A---5p3p0-6p0-10-7p0-6-5p3p0-------0-0-0-x------------------------------
E----------------------------------------3------------------------------
                                   x x x

e-----------------------------------------------------------------------
B-----------------------------------------------------------------------
G----------------------------0---2-------5/7-5~-------------------------
D----------------------------0---2-------5/7-5~-------------------------
A---5p3p0-6p0-10-7p0-6-5p3p0-------0-0-0--------------------------------
E-----------------------------------------------------------------------
                                   x x x


20130321

BB KING THE THRILL IS GONE SOLO TAB - MARTY SCWARTZ IMROVISATION

Marty Schwartz teaches us The Thrill Is Gone by BB King. The reason why we've put this video here is the little improvisation solo at the beginning. He actually teaches the chords and the rhythm in the lesson. TAB of the improvisation solo below.


BB KING THE THRILL IS GONE TAB - IMPROVISATION BY MARTY SCHWARTZ


e-10'---7~--------------7'----------------------------------------------
B-------------------------------10--------------------------------------
G---------------9(11)--------------9(11)-7-9----------------------------
D--------------------------------------------9-9~-----------------------
A-----------------------------------------------------------------------
E-----------------------------------------------------------------------


e-------------------7---------------------------------------------------
B-----------------7---10p7----------------------------------------------
G-------7-9(11)------------9(11)-9-7---7-9h10p9p7---7-------------------
D---7h9------------------------------9------------9---9p7---------------
A-9-------------------------------------------------------9\7p5-7~------
E-----------------------------------------------------------------------