Showing posts with label of monsters and men. Show all posts
Showing posts with label of monsters and men. Show all posts

20140720

OF MONSTERS AND MEN DIRTY PAWS TAB


There is a nice guitar intro part in Dirty Paws by Of Monsters And Men.
Basically there are a few popular chords with a CAPO on the 3rd.
See the TAB under the video.



OF MONSTERS AND MEN DIRTY PAWS TAB

PDF >>

Intro

e-----------------------------------------------------------------------
B-----------------------------------------------------------------------
G-------------2---------------0---------------0---------------0---------
D-----2---------------2---------------0h2-------------2-----------------
A-0-------0-------0-------0-------3-------3-------3-------3-------------
E-----------------------------------------------------------------------


e-----------------------------------------------------------------------
B---------------------------------------------1---------------1---------
G-------------0---------------0-------0h2-------------2-----------------
D-----2---------------2-----------3-------3-------3-------3-------------
A-3-------3-------3-------3---------------------------------------------
E-----------------------------------------------------------------------


e-----------------------------------------------------------------------
B-----------------------------------------------------------------------
G-------------2---------------0---------------0---------------0---------
D-----2---------------2---------------0h2-------------2-----------------
A-0-------0-------0-------0-------3-------3-------3-------3-------------
E-----------------------------------------------------------------------