Showing posts with label pete korving. Show all posts
Showing posts with label pete korving. Show all posts

20170304

PETE KORVING AVE MARIA NO MORRO TAB (GUITAR PRO 6 - PDF)


Pete Korving's instrumental guitar cover of Ave Maria No Morro.
Download the GP6 and PDF files below.



PETE KORVING AVE MARIA NO MORRO TAB

GP6 + PDF >>

Intro

e-------9-------9.----9------------------9-------9.----9----------------
B---------9---------------8~---------------9---------------8--\---------
G---9---------9-----9----------------9---------9-----9------------------
D-----------------------------------------------------------------------
A-----------------------------------------------------------------------
E-----------------------------------------------------------------------


Part 1

e-----------------------------------------------------------------------
B-----------------------------------------------------------------------
G-----------------------------------------------------------------------
D---------------------------2--2~-------222-----------2-4-2-2-----------
A---2-2-2-2--2~-------2-1-2------------------4~----------------3~-------
E-----------------------------------------------------------------------


e-----------------------------------------------------------------------
B-----------------------------------------------------------------------
G-----------------------------------------------------------------------
D---2-4-2.--------------------------------------------------------------
A----------2--2~--------222~-----2-4--4/6-\--2--2~----------------------
E-----------------------------------------------------------------------