Showing posts with label queen. Show all posts
Showing posts with label queen. Show all posts

20160602

DR VIOSSY BOHEMIAN RHAPSODY FOR SOLO GUITAR TAB (QUEEN)

Dr. Viossy plays Bohemian Rhapsody for solo guitar. Brilliant fingerstyle arrangement!
It's possible to play this piece with a normal 6 string guitar as the low B string (7th string) is not being used too much. Original song by Freddie Mercury (Queen)
See the TAB under the video.


DR VIOSSY BOHEMIAN RHAPSODY FOR SOLO GUITAR TAB

GP6 + GP5 + PDF >>

e-----------------------------------------------------------------------
B---10.--10.--10.--10-------10---\--------------------------------------
G---11.--11.--11.--11-------11---\--------------------------------------
D---14.--14.--14.--14-------14---\--------------------------------------
A-----------------------------------------------------------------------
E-----------------------------------------------------------------------
B-----------------------------------------------------------------------


e-----------------------------------------------------------------------
B---10.--10---10.--10---10-7--------------------------------------------
G---11.--11---11.--11---11-8--------------------------------------------
D---13.--13---14.--13---11-9--------------------------------------------
A-----------------------------------------------------------------------
E-----------------------------------------------------------------------
B-----------------------------------------------------------------------


e-----------------------------------------------------------------------
B---9---9---9---9h10---9------------------------------------------------
G---9---9---9---9h11---9------------------------------------------------
D-----------------------------------------------------------------------
A-----------------------------------------------------------------------
E--------------------------<12>---<12>----------------------------------
B-----------------------------------------------------------------------


20140103

QUEEN LOVE OF MY LIFE TAB (BY BRIAN MAY HIMSELF)


This is a short guitar lesson how to play the main parts of Queen - Love Of My Life
taught by Brian May himself. See the TAB under the video.



QUEEN LOVE OF MY LIFE TAB

PDF >>

Part 1

e---------------2-------------------------------------------------------
B---3---2---3-----------------------3-----------------------------------
G--2----------------------------2---------------------------------------
D-0---------------------------------------------------------------------
A---------------------------------------4-------------------------------
E-----------------------------------------------------------------------


e----------------2------------------------------------------------------
B----3---2---3----------------------------------------------------------
G---4-----------------------------------4-------------------------------
D--4--------------------------------4-----------------------------------
A-2---------------------------------------------------------------------
E-----------------------------------------------------------------------


e-0---------------0-----------------------------------------------------
B-0-----------0-----------3-------2-------3-------5---\---2~------------
G-0-------0-------------------------------------------------------------
D-2---2---------------2-------2---2-------4-------5---\---2~------------
A---------------------------------0---0-------0-------------------------
E-0---------------------------------------------------------------------


20130806

BOHEMIAN RHAPSODY TAB (FINGERSTYLE COVER BY EDGAR CRUZ)

Great fingerstyle arrangement of Queen's Bohemian Rhapsody.
The original video title says: 'Bohemian Rhapsody - for solo guitar'
See the TAB below.



BOHEMIAN RHAPSODY FINGERSTYLE TAB                                  

PDF >>

Part 1

e-5---5---5---5---5---5-----------5---5---5---5-----5-2-----------------
B-7---7---7---7---7---7-----------7---7---7---7-----7-4-----------------
G-9---9---9---9---9---9-----------8---8---9---8-----6-4-----------------
D-----------------------------------------------------------------------
A-----------------------------------------------------------------------
E-----------------------------------------------------------------------


e-4---4---4.--5-----------4-----------5---5---5---5.--------------------
B-5---5---5.--7-----------5-----------5---5---7---5.--7---5-------------
G-7---7---7.--7-----------7-----------6---6---7---6.--7---6-------------
D-----------------------------------------------------9---7-------------
A-----------------------------7---7---0---------------------------------
E-----------------------------------------------------------------------


20130321

QUEEN WE ARE THE CHAMPIONS TAB - INSTRUMENTAL


Pablo Tru plays an instrumental guitar cover of We Are The Champions by Queen.
See the TAB under the video.



QUEEN WE ARE THE CHAMPIONS TAB

PDF >>

e-----------------------------------------------------------------------
B-----------------------------------------------------------------------
G------3---5.--5~--------------3---5.--5~-------------3---5.--5~--------
D-/5----------------------/5---------------------/5---------------------
A-----------------------------------------------------------------------
E-----------------------------------------------------------------------


e-----------------------------------------------------------------------
B-------4---3-----------------------------------------------------------
G-3-0-----------3---3/5~------------------------------------------------
D-----------------------------------------------------------------------
A-----------------------------------------------------------------------
E-----------------------------------------------------------------------


e-----------------------------------------------------------------------
B-----3---3/4---4~----------------3---4---4~----------------------------
G-3---------------------------3-----------------------------------------
D-----------------------------------------------------------------------
A-----------------------------------------------------------------------
E-----------------------------------------------------------------------


20130310

QUEEN HAMMER TO FALL TAB - SOLO

Great cover of Hammer To Fall guitar solo by Queen.
TAB helps below.



QUEEN HAMMER TO FALL TAB

PDF >>

e-----------------------------------------------------------------------
B---------------------10---12(14)(12)p10-12---12(14)~~~-----------------
G-6~---7---7/9~~--------------------------------------------------------
D-----------------------------------------------------------------------
A-----------------------------------------------------------------------
E-----------------------------------------------------------------------


e-----------------------------------------------------------------------
B-17(19)~---17---15---14h15h17------------------------------------------
G--------------------------------14---16---16(18)(16)p14-16(18).-14~----
D-----------------------------------------------------------------------
A-----------------------------------------------------------------------
E-----------------------------------------------------------------------


20121211

QUEEN DONT STOP ME NOW SOLO WITH TAB

Wynand B plays an amazing cover of 13 Brian May guitar solos here.
All of them is perfect but now we need the Don't Stop Me Now solo.
For that guitar solo go to 5:45 in this video.
TAB will help below.



QUEEN DON'T STOP ME NOW SOLO TAB


e-----------------------------------------------------------------------
B-----------------------------------------------------------------------
G-12(14)~~~~~~(14)(12)p10-12(14)~~~~~~~~~~~(14)(12)p10-12p10\9-10~~~----
D-----------------------------------------------------------------------
A-----------------------------------------------------------------------
E-----------------------------------------------------------------------


e-----------------------------------------------------------------------
B-/11-10.---------------------------------------------------------------
G----------12.--10.--12(14)---(13).--(14).--(13).--(14)(12)-------------
D----------------------------------------------------------10~----------
A-----------------------------------------------------------------------
E-----------------------------------------------------------------------


e-----------------------------------------------------------------------
B-----------------------------------------------------------------------
G-15(17)~~~~~~(17)(15)p14-15(17)~~~~~~~~~~(17)(15)p14-15p14-12-14~~~----
D-----------------------------------------------------------------------
A-----------------------------------------------------------------------
E-----------------------------------------------------------------------


20120913

CRAZY LITTLE THING CALLED LOVE SOLO TAB AND LESSON

Short guitar lesson how to play the Brian May solo of Crazy Little Thing Called Love.
He plays it with a Fender Telecaster (neck pick-up) and uses his Vox AC30tube Amp. That's one of the secrets of this cool sound. The rest is in your hands ...
TAB helps below.



QUEEN CRAZY LITTLE THING CALLED LOVE TAB


e-/10---10-10---10-10---10----------------------------------------------
B-/10---10-10---10-10---10-13(15)--(15)--(15)(13)p11-13-11~-------------
G-----------------------------------------------------------------------
D-----------------------------------------------------------------------
A-----------------------------------------------------------------------
E-----------------------------------------------------------------------


e-------13.----/10---10-10.--------------------------10-10.-------------

B-13(15)-------/10---10-10.--12---10-----------10-12----10.-------------
G----------------------------12------11.--10h11-------------------------
D-----------------------------------------------------------------------
A-----------------------------------------------------------------------
E-----------------------------------------------------------------------


e---------13------13-------------------------------13.------------------B-13(15)----13(15)--(15)(13)p11-13.-11-------13(15)---------------------
G-----------------------------------------------------------------------
D-----------------------------------------------------------------------
A-----------------------------------------------------------------------
E-----------------------------------------------------------------------


e-----------------------------------------------------------------------B-16/17---17-15---17----------------------------------------------------
G-15/16---16--------16(17)---14-------14.---14.---16(17)(16)p14-16-14~--
D------------------------------16---14----------------------------------
A-----------------------------------------------------------------------
E-----------------------------------------------------------------------