Showing posts with label red headed stranger. Show all posts
Showing posts with label red headed stranger. Show all posts

20170906

WILLIE NELSON BANDERA TAB (RED HEADED STRANGER 1975)

Willie Nelson - Bandera nylon guitar solo parts from the album Red Headed Stranger
There is an intro solo part then later a little solo while the beautiful harp playing and at the end there is the outro solo part that's very similar to the intro solo.
Download the Guitar Pro and PDF files below.


WILLIE NELSON BANDERA TAB

GP5 + GP6 + PDF >>

Intro solo

e---1---2---3~------3-3-3~------3-3-3~------3-3-3~---2---1--------------
B-----------------------------------------------------------------------
G---2---3---4~------4-4-4~------4-4-4~------4-4-4~---3---2--------------
D-----------------------------------------------------------------------
A-----------------------------------------------------------------------
E-----------------------------------------------------------------------


e-----0-------------0-----------0-----------3---------------------------
B-------1---------0---0-------1---1-------3---3-------------------------
G---0-----0--------1----1------2----2----3-3----------------------------
D-----------2-------------2--2--------2---------------------------------
A-------------3--2----------0-------------------------------------------
E---------------0-----------------------3-------3-2---------------------


e-----------------------------------------------------------------------
B-------1~----1.-1~--3-----5\-1~-------1-1-1---3---5\-1-----------------
G-------------------------------------------------------0---------------
D-----------------------------------------------------------------------
A-----------------------------------------------------------------------
E---1-------------------------------------------------------------------


20170320

WILLIE NELSON O'ER THE WAVES TAB (RED HEADED STRANGER 1975)


Willie Nelson - O'er The Waves from the album Red Headed Stranger (1975)
Download the Guitar Pro 6, GP5 and PDF files below.



WILLIE NELSON O'ER THE WAVES TAB

GP5 + GP6 + PDF >>

e-------------------------------3---------------------------------------
B---3-----------------------3---0---------------------------------------
G-----5-4-----------3---4---0---0---------------------------------------
D---------------------------0-------------------------------------------
A-----------------------------------------------------------------------
E-----------------------------------------------------------------------


e---2----3-5---3.----2-3------------------------------------------------
B------------------------------3/--7------------------------------------
G--------------------------4--------------------------------------------
D-----------------------------------------------------------------------
A-----------------------------------------------------------------------
E-----------------------------------------------------------------------


e-----------------------------------------------------------------------
B-----------------------3/--7-------------------------------------------
G---5-----------4---5---------------------------------------------------
D-----------------------------------------------------------------------
A-----------------------------------------------------------------------
E-----------------------------------------------------------------------