Showing posts with label relaxing. Show all posts
Showing posts with label relaxing. Show all posts

20170124

MICHAEL MUCKLOW RAIN TAB (RELAXING ACOUSTIC GUITAR SONG)


Michael Mucklow - Rain - relaxing acoustic guitar song.
From the album - Silent Voices.
See the TAB under the video.


MICHAEL MUCKLOW RAIN TAB

GP5 + GP6 + PDF >>

Part 1

e------------------0--------------------0-------------------------------
B------------0--------0--------0-----------0----------------------------
G---------6--------------6--------6-----------6-------------------------
D------6--------6--------------------6-----------6----------------------
A---4-----------------------4-------------------------------------------
E-----------------------------------------------------------------------


e------------------------0----------------------------------------------
B---5-/7-----------7-----------7--------7-p0-h4-p0----------------------
G------------8--------------------8-------------------------------------
D-----------------------------------------------------------------------
A---------9-----9-----9-----9--------9----------------------------------
E---0-------------------------------------------------------------------


e------------------0--------------------0-------------------------------
B------------0--------0--------0-----------0----------------------------
G---------6--------------6--------6-----------6-------------------------
D------6--------6--------------------6-----------6----------------------
A---4-----------------------4-------------------------------------------
E-----------------------------------------------------------------------


20160304

JOHANNES LINSTEAD ELENI TAB (GUITAR PRO)

Johannes Linstead plays a relaxing guitar song called Eleni.
Very nice nylon guitar solo.
See the TAB under the video.



JOHANNES LINSTEAD ELENI TAB

GP5 + GP6 + PDF >>

Intro

G1
e------<12>----------------------------------------------------<12>-----
B-<12>------------------------------------------------------------------
G-----------------------------------------------------------------------
D-----------------------------------------------------------------------
A-----------------------------------------------------------------------
E-----------------------------------------------------------------------

G2
e---------------2p0-----------------------------------------------------
B-------------0-----0---------------------------------------------------
G-----------0---------------0-------------------0---------------0-------
D---------2---------------------------------2---------------4-------4---
A-----------------------------------0-2-3-----------5-------------------
E-------0---------------------------------------------------------------


G1
e-----------------------------------------------------------------------
B---<12>------------------------------------<7>-------------------<12>--
G--------------------------------------<5>------------------------------
D------------------------------------------------<5>--------------------
A-----------------------------------------------------------------------
E-----------------------------------------------------------------------

G2
e-----------2p0---------------------------------------------------------
B---------0-----0-------------------------1p0---------------------------
G-------0---------------0---------------0-----0-------------<7>---------
D-----2-------------------------------2---------0-----------<7>---------
A-------------------------------0-2-3-----------------------------------
E---0-------------------------------------------------------------------


20140327

WARNING LIGHT TAB (RELAXING ACOUSTIC GUITAR MUSIC MIX BY WAVESDVDCOM)

Somber Guitar - Warning Light is the last song in this wonderful mix by 18:20.
Standard tuning with Capo on the 2nd fret.
See the TAB under the video and enjoy the golden sand on the beach.



WARNING LIGHT TAB

GP5 + GP6 + PDF >> 

Part 1                - CAPO on 2nd -

e---------0h2p0---------3-----------3-----------------------------------
B---------3-----3-------------------3-----------------------3---0-------
G-----2-------------2-----------0---0-------0---2-----------2---2-------
D-0-------------------------0-----------2---------------0---------------
A-----------------------------------3-----------------------------------
E---------------------------------------------------2-------------------


e-------------3---------------------------------------------------------
B-------------------------0---0h1---------1---------------3-------------
G---------2-----------2-----------------------0-------0-----------------
D-----0-------------------------------2---2-----------0-----------------
A---------------------------------0---------------2-----------2.--------
E-3---------------3-----------------------------------------------------


e-------------------------0h2-----2---3---------------------------------
B-3-------------------------------3-----------3-------------------------
G---------0-----------2-------2-----------2-----------------------------
D-----0-----------0-----------------------------------------------------
A-3---------------------------------------------------------------------
E-----------------------------------------------------------------------


20140218

STARRY NIGHT TAB (RELAXING ACOUSTIC GUITAR MUSIC MIX BY WAVESDVDCOM)

Somber Guitar - Starry Night is the 6th song in this wonderful mix by 15:45.
Use standard tuning with Capo on the 3rd fret.
See the TAB under the video and enjoy the golden sand on the beach.



STARRY NIGHT TAB

GP5 + GP6 + PDF >> 

Part 1                  - Capo on 3 -

e---------3-----------5-------3-------2-----------3---2-----------------
B---------------------------------------------0-----------0-------------
G-----0-------0-----------0---------------0-------------------0---------
D-5---------------4-----------2-----------------------------------------
A-----------------------------------------------------------------------
E-----------------------------------------------------------------------


e---------0-------------------------------------------------------------
B-0h1-----------------3-------------------1---------------3---0---------
G-------------0-----------0-----------0-----------2---------------------
D-----2---------------0-----------0h2---------0-------0-----------------
A-0---------------2-----------3-----------------------------------------
E-------------------------------------------------2---------------------


e-----------------------------------------------------------------------
B---------0-----------3---------------0-----------0---0-------1---------
G-------------2-------2-------0---------------0-----------0-------------
D-----0---0-----------------------2-------2-------2---0-----------------
A-------------------------------------------------------------3---------
E-3---------------2-------2---0-----------------------------------------


20140117

SHIMMER TAB (RELAXING ACOUSTIC GUITAR MUSIC MIX BY WAVESDVDCOM)

Somber Guitar - Shimmer is the 3rd song by 6:13 on this wonderful mix here.
Use standard tuning with Capo on the 6th fret.
See the TAB under the video and enjoy the golden sand on the beach.



SHIMMER TAB

GP5 + GP6 + PDF >> 

Part 1                     - Capo on 6th -

e-----------------------------------------------------------------------
B-----------3---------------3---------------3---------------3-----------
G---------------0---------------0---------------0---------------0-------
D-----0-------0-------0-------0-------0-------0-------0-------0---------
A-3-------3-------3-------3-------3-------3-------3-------3-------------
E-----------------------------------------------------------------------


Part 2

e-----------------3---------------0h2-------------2---------------------
B-----3-----3---------------3-----------3-------------------3-----------
G-----0-------------------------0-----------0-------------------0-------
D-----0-------0-------0-------0-------0-------0-------0-------0---------
A-----------------------------------------------------------------------
E-3-------3-------3-------3-------3-------3-------3-------3-------------


e-0h2---2---------0---0-----------0h2---2---------0---0-----------------
B-----------3---------3-----3---------------3---------3-----3-----------
G---------------------0---------0---------------------0---------0-------
D-----0-------0---------------0-------0-------0---------------0---------
A-3-------3-------3-------3-------3-------3-------3-------3-------------
E-----------------------------------------------------------------------


20130924

MORNING SUN TAB (RELAXING ACOUSTIC GUITAR MUSIC MIX BY WAVESDVDCOM)

There is an awesome video on YouTube shared by http://www.wavesdvd.com.
7 songs played with an acoustic guitar while sitting by the sea and enjoy the waves.
The first song is called Morning Sun (by Somber Guitar) played in Open G tuning (DGDGBd) See the TAB under the video.



SHORT GUITAR LESSON OF THE 1ST TRACK - MORNING SUN


MORNING SUN TAB

GP5 + GP6 + PDF >>

Part 1

d---7-------7-------7-------7-------------------------------------------
B-------0-------0-------0-------0---------------------------------------
G-----7-------7-------7-------7-----------------------------------------
D-0-------0-------0-------0---------------------------------------------
G-----------------------------------------------------------------------
D-----------------------------------------------------------------------


d---7-------7-------5-------5-------4-------4-------5-------5-----------
B-------0-------0-------0-------0-------0-------0-------0-------0-------
G-----7-------7-------4-------4-------2-------2-------4-------4---------
D-0-------0-------0-------0-------0-------0-------0-------0-------------
G-----------------------------------------------------------------------
D-----------------------------------------------------------------------