Showing posts with label rhythm. Show all posts
Showing posts with label rhythm. Show all posts

20170515

SCORPIONS I'M LEAVING YOU TAB (RHYTHM GUITAR LINE)


Scorpions - I'm Leaving You rhythm guitar cover played by ScorpionKing.
Download the Guitar Pro 6, GP5 and PDF files below.



SCORPIONS I'M LEAVING YOU TAB

GP5 + GP6 + PDF >>

Intro

e-----------------------------------------------------------------------
B-----------------------------------------------------------------------
G-----------------------------------------------------------------------
D-----2-0---------2-0---0---7/9-------2-0---------2-0---0---9---\-------
A---------3~----------3-----5/7-----------3~----------3-----7---\-------
E---0-----------------------------0-------------------------------------


e-----------------------------------------------------------------------
B-----------------------------------------------------------------------
G-----------------------------------------------------------------------
D-------2-0---------2-0---0---7/9-------2-0---------2-0---0---9---\-----
A-----------3~----------3-----5/7-----------3~----------3-----7---\-----
E---0-------------------------------0-----------------------------------


e-----------------------------------------------------------------------
B-----------------------------------------------------------------------
G-----------------------------------------------------------------------
D-------2-0---------2-0---0---7/9-------2-0---------2-0---0---9---\-----
A-----------3~----------3-----5/7-----------3~----------3-----7---\-----
E---0-------------------------------0-----------------------------------


20140608

10 YEARS KNIVES TAB

This is the number 10 song on the Minus the Machine album. 10 Years - Knives.
Use Dropped C# tuning (that is C#G#C#F#A#D#)
See the TAB under the video.



10 YEARS KNIVES TAB

PDF >>

Part 1

D#----------------------------------------------------------------------
A#----------------------------------------------------------------------
F#---------2--------------------2-------------3-------------------------
C#-------0--------------------0-------------0---------------------------
G#----------------------3-------------1---------------------------------
C#-0--------------------------------------------------------------------



Part 2

D#----------------------------------------------------------------------
A#----------------------------------------------------------------------
F#-------2-----2h3p2p0-2-------2--p0-------2----------------------------
C#-----0-----0---------------0-----------0------------------------------
G#-----------------------3-----------1----------------------------------
C#-0--------------------------------------------------------------------



Part 3

Guitar1
D#----------------------------------------------------------------------
A#----------------------------------------------------------------------
F#----------------------------------------------------------------------
C#-5/7-7-8\7-7--5/7-7-8\7-7--5-5-5-5-5-5--1-1-1-1-1-1-------------------
G#-3/5-5-6\5-5--3/5-5-6\5-5--3-3-3-3-3-3--1-1-1-1-1-1-------------------
C#----------------------------------------1-1-1-1-1-1-------------------


20130930

THE ROLLING STONES GOOD TIME WOMAN TAB


Some great lead guitar parts in Good Time Woman by the Rolling Stones.
Rhythm guitar in OPEN G tuning, lead guitar in standard tuning.
See the TAB under the video.



THE ROLLING STONES GOOD TIME WOMAN TAB

GP5 + GP6 + PDF >>

Intro

Rhythm Guitar
D-----------------------------------------------------------------------
B-----------------------------------------------------------------------
G-----------------------------------------------------------------------
D--------3/5--3h5--3h5--3h5--3h5--3h5--3h5--3h5--3h5--3p0-------------3-
G--3-3-3--------------------------------------------------5--3'---0-0---
D-----------------------------------------------------------------------


RG
D-----------------------------------------------------------------------
B-----------------------------------------------------------------------
G-----------------------------------------------------------------------
D--3/5--3h5--3h5--3h5--3h5--3h5--3h5--3h5--3h5--3p0-----------2---------
G---------------------------------------------------5--3'---0-----------
D-----------------------------------------------------------------------


RG
D-----------------------------------------------------------------------
B-----------------------------------------------------------------------
G-----------------------------------------------------------------------
D--3/5--3h5--3h5--3h5--3h5--3h5--3h5--3h5--3h5--3p0-----------2---------
G---------------------------------------------------5--3'---0-----------
D-----------------------------------------------------------------------

Lead Guitar
e--------15--15--15---------15--15--15----------------------------------
B-18(20)-------------18(20)-------------(20)-(18)p15--------------------
G----------------------------------------------------17-15'-------------
D-------------------------------------------------------------17~-------
A-----------------------------------------------------------------------
E-----------------------------------------------------------------------



20130814

STING IT'S PROBABLY ME TAB (FEAT. ERIC CLAPTON)

It's Probably Me by Sting and Eric Clapton. Amazing studio record started with the magic lighter. Eric Clapton plays a cool solo with a Stratocaster, though there is an acoustic guitar in the video for the rest of the song.
See the TAB of Eric Clapton's guitar solo by 2:25 and also the main riff of the song.


STING - ERIC CLAPTON IT'S PROBABLY ME TAB                  

PDF >>

Clapton's solo by 2:25

e-----------------------------------------------------------------------
B-10(12)-----(10)(12)-----(10)~--------8-10p8~--------------------------
G-----------------------------------------------------------------------
D-----------------------------------------------------------------------
A-----------------------------------------------------------------------
E-----------------------------------------------------------------------


e-----------------------------------------------------------------------
B-10/12.-8'-------------------------------------------------------------
G-------------9-7----------------------------7'-------------------------
D-----------------9\7-5-7~-----------7-7/9--------9\7-5-----------------
A-------------------------------------------------------7~--------------
E-----------------------------------------------------------------------


20130428

JIMMY BUFFET BAMA BREEZE TAB (SOLOS)

There are three awesome guitar solos in Jimmy Buffet - Bama Breeze.
One in the beginning, the main solo and another one at the end.
Use a CAPO on the 1st fret to play the chords.



JIMMY BUFFET BAMA BREEZE TAB

PDF >>

Intro solo

e-----------------------------------------------------------------------
B-11(13)------(13)(11)---10---------------------------------------------
G-----------------------------12~-----10~-----10/12-----12h14------10---
D-----------------------------------------------------------------------
A-----------------------------------------------------------------------
E-----------------------------------------------------------------------



Solo 1

e-----------------------------------------------------------------------
B-----------------------------------------------------------------------
G-----------------10/12---10------12(14)------12---10\9h10-12-----------
D-10/12---10------------------------------------------------------------
A-----------------------------------------------------------------------
E-----------------------------------------------------------------------