Showing posts with label rolling stones. Show all posts
Showing posts with label rolling stones. Show all posts

20160804

THE ROLLING STONES I'M FREE TAB (GUITAR SOLO)


There is a little guitar solo in the legendary Rolling Stones song - I'm Free.
It starts about 1:10 in this video and sounds so cool ...
See the SOLO TAB under the video.



THE ROLLING STONES I'M FREE SOLO TAB

GP5 + GP6 + PDF >>

 ~ 1:10

e-----------------------------------------------------------------------
B-----------------------------------------------------------------------
G---0h2----2----0-----0--------------------0--2p0----0----0h2.----------
D------------------2-----2p0-----------0h2--------2---------------------
A----------------------------3------------------------------------------
E-----------------------------------------------------------------------


e-----------------------------------------------------------------------
B--------1-----1--------------------------------------------------------
G---0h2-----2--0---------0h2-p0--2p0----0----0h2------------------------
D------------------------------------2----------------------------------
A-----------------------------------------------------------------------
E-----------------------------------------------------------------------


e-----------------------------------------------------------------------
B-----------------------------------------------------------------------
G---0-----0---------------2p0----0--2p0------0--------------------------
D------2-----2-------2--------2---------2-------------------------------
A---------------3-------------------------------------------------------
E-----------------------------------------------------------------------


20160320

THE ROLLING STONES STAR STAR TAB (GUITAR SOLO)

There is a great rock and roll guitar solo in Star Star by The Rolling Stones.
It starts about 2:08 on this record and finishes about 2:38.
See the solo TAB under the video.



THE ROLLING STONES STAR STAR TAB (GUITAR SOLO)

GP5 + GP6 + PDF >>

                F
e-----------------------------------------------------------------------
B-----------------------------------------------------------------------
G---12(14)---12(14)---(12)---10------12(14)-12(14)-12(14)(12)-10--------
D---------------------------------------------------------------12------
A-----------------------------------------------------------------------
E-----------------------------------------------------------------------

       C                                                   F
e-----------------------------------------------------------------------
B---13-----------------------13-----------------------------------------
G--------12(14)---(12)-10--10-----12(14)---(12)-10--10-12-(14)(12)------
D------------------------12-----------------------12--------------------
A-----------------------------------------------------------------------
E-----------------------------------------------------------------------

                                          C
e-----------------------------------------------------------------------
B-------------------------13(15)(13)-10---------------------------------
G---10-----12(14)(12)-10---------------12(14)---(12)-10--10-------------
D--------12-------------12-----------------------------12---------------
A-----------------------------------------------------------------------
E-----------------------------------------------------------------------


THE ROLLING STONES DON'T STOP TAB (SOLO)


Short video how to play the guitar solo of Don't Stop by the Rolling Stones.
Not sure but it might be Ronnie who plays it on the original record.
See the TAB under the video.



THE ROLLING STONES DON'T STOP SOLO TAB

PDF >>


e-----------------------------------------------------------------------
B-----------------------------------------------------------------------
G--------9---9h11.----9h11.----11p9------9h11p9-------------------------
D---9h11----------------------------11-9--------11-9--------------------
A-----------------------------------------------------------------------
E-----------------------------------------------------------------------


e-----------------------------------------------------------------------
B-----------------------------------------------------------------------
G----9------------------------------------------------------------------
D---x----11-9\7---9.----7h9.----9p7---7-9/11-9p7------------------------
A-----------------------------------9------------7--/-9-----------------
E-----------------------------------------------------------------------


e-----------------------------------------------------------------------
B-----------------------------------------------------------------------
G--------9---9h11.----9h11.----11p9------9h11p9-------------------------
D---9h11----------------------------11-9--------11-9--------------------
A-----------------------------------------------------------------------
E-----------------------------------------------------------------------



20141130

THE ROLLING STONES DEAD FLOWERS TAB (MAIN SOLO PART)

Brilliant Keith Richards guitar solo on the '71 album in the middle of Dead Flowers.
There are some cool lead parts throughout the whole song, the main solo is at 2:35.
The great thing is that Keith Richards only uses one pentatonic scale.
See the solo TAB under the video.


THE ROLLING STONES DEAD FLOWERS SOLO TAB

PDF >>

2:35
        D                       A             G                  D
e------------------7----------------------------------------------------
B--------------------10-----------------------10------------------------
G-----7-9(11)-----------(11)(9)-----------7------(11)(9)p7-9-7---7~-----
D-7h9---------------------------------7h9---9------------------9--------
A-----------------------------------------------------------------------
E-----------------------------------------------------------------------

                                      A
e---------10------------------------------------------------------------
B------------10(12)---10-8-10-------------------------------------------
G-----7-----------------------9(11)---7---7-7~--------------------------
D-7h9---9-------------------------------9-------------------------------
A-----------------------------------------------------------------------
E-----------------------------------------------------------------------

        G                      D
e-----------------------------------------------------------------------
B-------10--------------------------------------------------------------
G-----7----(11)(9)p7-9-7---7~-------------------------------------------
D-7h9--------------------9----------------------------------------------
A-----------------------------------------------------------------------
E-----------------------------------------------------------------------


20140514

THE ROLLING STONES SYMPATHY FOR THE DEVIL SOLO TAB (GET YER YA-YA'S OUT)

Keith Richards & Mick Taylor's guitar solo in Sympathy For The Devil.
This particular solo is on the Get Yer Ya-Ya's Out album.
See the TAB under the video.



ROLLING STONES SYMPATHY FOR THE DEVIL SOLO TAB

PDF >>

Part 1

e-----------------------------------------------------------------------
B-----------------------------------------------------------------------
G-----------------------------------------------------------------------
D--------------------------5--------------------------5h7~--------------
A----------------------7--------------------------7---------------------
E-0---------------------------------------------------------------------


e-----------------------------------------------------------------------
B-----------------------------------------------------------------------
G-----------------------------------------------------------------------
D--------7-5------------------------------------------------------------
A----------------7~-----------------------------------------------------
E-----------------------------------------------------------------------


e-----------------------------------------------------------------------
B-----------------------------------------------------------------------
G-----------------------------------------------------------------------
D---------------------------------5'-------------------5h7~-------------
A-------------------/7.--/7.--7.-------------------7--------------------
E-///7.-----------------------------------------------------------------


20130930

THE ROLLING STONES GOOD TIME WOMAN TAB


Some great lead guitar parts in Good Time Woman by the Rolling Stones.
Rhythm guitar in OPEN G tuning, lead guitar in standard tuning.
See the TAB under the video.



THE ROLLING STONES GOOD TIME WOMAN TAB

GP5 + GP6 + PDF >>

Intro

Rhythm Guitar
D-----------------------------------------------------------------------
B-----------------------------------------------------------------------
G-----------------------------------------------------------------------
D--------3/5--3h5--3h5--3h5--3h5--3h5--3h5--3h5--3h5--3p0-------------3-
G--3-3-3--------------------------------------------------5--3'---0-0---
D-----------------------------------------------------------------------


RG
D-----------------------------------------------------------------------
B-----------------------------------------------------------------------
G-----------------------------------------------------------------------
D--3/5--3h5--3h5--3h5--3h5--3h5--3h5--3h5--3h5--3p0-----------2---------
G---------------------------------------------------5--3'---0-----------
D-----------------------------------------------------------------------


RG
D-----------------------------------------------------------------------
B-----------------------------------------------------------------------
G-----------------------------------------------------------------------
D--3/5--3h5--3h5--3h5--3h5--3h5--3h5--3h5--3h5--3p0-----------2---------
G---------------------------------------------------5--3'---0-----------
D-----------------------------------------------------------------------

Lead Guitar
e--------15--15--15---------15--15--15----------------------------------
B-18(20)-------------18(20)-------------(20)-(18)p15--------------------
G----------------------------------------------------17-15'-------------
D-------------------------------------------------------------17~-------
A-----------------------------------------------------------------------
E-----------------------------------------------------------------------



20130627

THE ROLLING STONES LITTLE QUEENIE TAB AND COVER


The Rolling Stones - Little Queenie played by Happyhotstar.
Great guitar cover with a nice Fender Stratocaster
See the TAB under the video.



THE ROLLING STONES LITTLE QUEENIE TAB

GP5 + GP6 + PDF >>

Intro

e-----------------------------------------------------------------------
B-----------------------------------------------------------------------
G-----------------------------------------------------------------------
D-2---2-4---2---4-2---------2---4-2---2-4---2---4-2-----4---2---4-------
A-0---0-0---0---0-0---0-3-4-0-0-0-0---0-0-0-0-0-0-0---0-0-0-0-0-0-0-----
E-----------------------------------------------------------------------
        x   x   x     x     x   x       x   x   x       x   x   x

e-----------------------------------------------------------------------
B-----------------------------------------------------------------------
G-----------------------------------------------------------------------
D-2---4---2---4---2---4---2---4---2---4---2---4---2---4---2---4---------
A-0-0-0-0-0-0-0-0-0-0-0-0-0-0-0-0-0-0-0-0-0-0-0-0-0-0-0-0-0-0-0-0-------
E-----------------------------------------------------------------------
  x   x   x   x   x   x   x   x   x   x   x   x   x   x   x   x 


20130621

THE ROLLING STONES CAROL TAB


The Rolling Stones - Carol guitar cover played by happyhotstar.
Standard tuning, bridge pick-ups and some overdrive.
See the TAB under the video.



THE ROLLING STONES CAROL TAB

GP5 + GP6 + PDF >> 

Intro

e---------5-5-5-5-5-----------------------5-5-5-5-5-5-5-5-5-------------
B-----5-7-5-5-5-5-5---5-7-5-5-5-5-5---5-7-5-5-5-5-5-5-5-5-5-7(8)(7)~~~~-
G---6---------------6-----5-5-5-5-5-6-----------------------7(8)(7)~~~~-
D-----------------------------------------------------------------------
A-----------------------------------------------------------------------
E-----------------------------------------------------------------------


Chorus

e-----------------------------------------------------------------------
B-----------------------------------------------------------------------
G-----------------------------------------------------------------------
D---7-7-9-7-7-7-9-7-7-7-9-7-7-7-9-7-------------------------------------
A---5-5-5-5-5-5-5-5-5-5-5-5-5-5-5-5--7-7-9-7-7-7-9-7-7-7-9-7-7-7-9-7----
E------------------------------------5-5-5-5-5-5-5-5-5-5-5-5-5-5-5-5----
    x x x x x x x x x x x x x x x x  x x x x x x x x x x x x x x x x

e------------------------------------------5------5---------5-----5\----
B------------------------------------------5-7.---5---7-----5-----5\----
G--------------------------------------------7.-------7-5h6---5h6-------
D---9-9-11-9-12-9-11-9-9-9-11-9-9-9-11-9--------------------------------
A---7-7-7--7-7--7-7--7-7-7-7--7-7-7-7--7--------------------------------
E-----------------------------------------------------------------------
    x x x  x x  x x  x x x x  x x x x  x


THE ROLLING STONES LET IT ROCK TAB (GUITAR COVER)


Brilliant guitar cover of Let It Rock (The Rolling Stones) played by happyhotstar.
He is using a cool Fender Stratocaster.
See the TAB under the video.



THE ROLLING STONES LET IT ROCK TAB

GP5 + GP6 + PDF >>

Intro

e----------5-5-5-5-5-5-5-5-5--------------------------------------------
B------5-7-5-5-5-5-5-5-5-5-5-8-7-5--------------------------------------
G-/6-------------------------------5h6----------------------------------
D--------------------------------------7-\------------------------------
A-----------------------------------------------------------------------
E-----------------------------------------------------------------------


Verse  (palm muted)

e-----------------------------------------------------------------------
B-----------------------------------------------------------------------
G-----------------------------------------------------------------------
D-2-2-4-2-2-2-4-2-2-2-4-2-2-2-4-2--2-2-4-2-2-----2-2-2-4-2-5-2-4-2------
A-0-0-0-0-0-0-0-0-0-0-0-0-0-0-0-0--0-0-0-0-0-3h4---0-0-0-0-0-0-0-0------
E-----------------------------------------------------------------------