Showing posts with label romantic. Show all posts
Showing posts with label romantic. Show all posts

20160304

JOHANNES LINSTEAD ELENI TAB (GUITAR PRO)

Johannes Linstead plays a relaxing guitar song called Eleni.
Very nice romantic guitar song with a nylon guitar.
See the TAB under the video.



JOHANNES LINSTEAD ELENI TAB

GP5 + GP6 + PDF >>

Intro

G1
e------<12>----------------------------------------------------<12>-----
B-<12>------------------------------------------------------------------
G-----------------------------------------------------------------------
D-----------------------------------------------------------------------
A-----------------------------------------------------------------------
E-----------------------------------------------------------------------

G2
e---------------2p0-----------------------------------------------------
B-------------0-----0---------------------------------------------------
G-----------0---------------0-------------------0---------------0-------
D---------2---------------------------------2---------------4-------4---
A-----------------------------------0-2-3-----------5-------------------
E-------0---------------------------------------------------------------


G1
e-----------------------------------------------------------------------
B---<12>------------------------------------<7>-------------------<12>--
G--------------------------------------<5>------------------------------
D------------------------------------------------<5>--------------------
A-----------------------------------------------------------------------
E-----------------------------------------------------------------------

G2
e-----------2p0---------------------------------------------------------
B---------0-----0-------------------------1p0---------------------------
G-------0---------------0---------------0-----0-------------<7>---------
D-----2-------------------------------2---------0-----------<7>---------
A-------------------------------0-2-3-----------------------------------
E---0-------------------------------------------------------------------


20150318

MIKE POSS ROMANTIC GUITAR INSTRUMENTAL TAB


Mike Poss playing a great Romantic Guitar Instrumental song.
He is using a custom made Explorer guitar - made by Joe Weber.
See the TAB under the video. (2nd guitar line included)



MIKE POSS ROMANTIC GUITAR INSTRUMENTAL TAB

GP5 + GP6 + PDF >>

Part 1

e-----------------------------------------------------------------------
B-----------------------------------------------------------------------
G------------14---------------9---------------4-/-6---------------------
D-------11----------------7---------------2-------------------7---6-----
A---9-------------9.--5-----------5.--0-------------------7-------------
E-----------------------------------------------------0-----------------


e-----------------------------------------------------------------------
B-----------------------------------------------------------------------
G------------14---------------9---------------4-/-6---------------------
D-------11----------------7---------------2-------------------4-/-6-----
A---9-------------9.--5-----------5.--0-------------------2-------------
E-----------------------------------------------------0-----------------


e-----------------------------------------------------------------------
B-----------------------------------------------------------------------
G------------14---------------9---------------4-/-6---------------------
D-------11----------------7---------------2-------------------7---6-----
A---9-------------9.--5-----------5.--0-------------------7-------------
E-----------------------------------------------------0-----------------


20131227