Showing posts with label roy orbison. Show all posts
Showing posts with label roy orbison. Show all posts

20161110

ROY ORBISON ONLY THE LONELY TAB (INSTRUMENTAL GUITAR COVER PLAYED BY ERIC)

Eric plays Only The Lonely by Roy Orbison with his Fender Stratocaster.
Great instrumental guitar cover.
See the TAB under the video.



ONLY THE LONELY INSTRUMENTAL TAB

GP5 + GP6 + PDF >>

Original intro

e-----------------------------------------------------------------------
B-----------------------------------------------------------------------
G-------0---2--------------------------------0---2----------------------
D---3------------------------------------3-----------0~----0~-----------
A---------------3~----3~------------------------------------------------
E-----------------------------------------------------------------------


e-----------------------------------------------------------------------
B-----------------------------------------------------------------------
G-------0---2---0-------------0-----------------------------------------
D---3-------------3-2-3~-------3-2~------2-3---5-5-3~-------------------
A-----------------------------------------------------------------------
E-----------------------------------------------------------------------


e-----------------------------------------------------------------------
B-----------------------------------------------------------------------
G-----------------------------------------------------------------------
D---2-3---5-5-3~--------------------------------------------------------
A-----------------------------------------------------------------------
E-----------------------------------------------------------------------