Showing posts with label roy orbison. Show all posts
Showing posts with label roy orbison. Show all posts

20170414

CALIFORNIA BLUE GUITAR INSTRUMENTAL TAB (ROY ORBISON)


Roy Orbison - California Blue easy instrumental guitar cover.
Download the Guitar Pro 6 + GP5 and PDF files below.



ROY ORBISON CALIFORNIA BLUE INSTRUMENTAL TAB

GP5 + GP6 + PDF >>

Part 1

  D           D                             G
e-----------------------------------------------------------------------
B-----------------------------------------------------------------------
G-----------------------------------------------------------------------
D-----------------------------------------------------------------------
A---5-7-7/9---9-----------------9-9-10----9-5---------------------------
E-----------------------------------------------------------------------

                A                         D
e-----------------------------------------------------------------------
B-----------------------------------------------------------------------
G-----------------------------------------------------------------------
D---5-5-5-----4---------------------------------------------------------
A---------------4-------------7-7-7-5-7-7/9-----------------------------
E-----------------------------------------------------------------------

              D                             G
e-----------------------------------------------------------------------
B-----------------------------------------------------------------------
G-----------------------------------------------------------------------
D-----------------------------------------------------------------------
A---5-7-7/9---9-----------------9-9-10----9-5---------------------------
E-----------------------------------------------------------------------


20161110

ROY ORBISON ONLY THE LONELY TAB (INSTRUMENTAL GUITAR COVER PLAYED BY ERIC)

Eric plays Only The Lonely by Roy Orbison with his Fender Stratocaster.
Great instrumental guitar cover.
See the TAB under the video.



ONLY THE LONELY INSTRUMENTAL TAB

GP5 + GP6 + PDF >>

Original intro

e-----------------------------------------------------------------------
B-----------------------------------------------------------------------
G-------0---2--------------------------------0---2----------------------
D---3------------------------------------3-----------0~----0~-----------
A---------------3~----3~------------------------------------------------
E-----------------------------------------------------------------------


e-----------------------------------------------------------------------
B-----------------------------------------------------------------------
G-------0---2---0-------------0-----------------------------------------
D---3-------------3-2-3~-------3-2~------2-3---5-5-3~-------------------
A-----------------------------------------------------------------------
E-----------------------------------------------------------------------


e-----------------------------------------------------------------------
B-----------------------------------------------------------------------
G-----------------------------------------------------------------------
D---2-3---5-5-3~--------------------------------------------------------
A-----------------------------------------------------------------------
E-----------------------------------------------------------------------