Showing posts with label royal albert hall. Show all posts
Showing posts with label royal albert hall. Show all posts

20171201

JOE BONAMASSA SLOE GIN GUITAR SOLO TAB (LIVE AT ROYAL ALBERT HALL)

Joe Bonamassa live Sloe Gin guitar solo with a Gibson Les Paul at Royal Albert Hall
The solo starts about 5:10 in this video and goes right until 6:40
Download the TAB below



JOE BONAMASSA SLOE GIN SOLO TAB

GP5 + GP6 + PDF >>

~ 5:10

e-----------------------------------------------------------------------
B---13(15)-------13(15)---13(15)~---------------------------------------
G-----------------------------------------------------------------------
D-----------------------------------------------------------------------
A-----------------------------------------------------------------------
E-----------------------------------------------------------------------


e---10--13(15)-13(15)------------(15)(13)p10-13~-----13.----------------
B-----10----------------------------------------------------------------
G-----------------------------------------------------------------------
D-----------------------------------------------------------------------
A-----------------------------------------------------------------------
E-----------------------------------------------------------------------


e---15(17)---(18)-15(17)-----(15)-13---------10-------------------------
B---------------------------------x-15-15~-----10-13(15)~---------------
G-----------------------------------------------------------------------
D-----------------------------------------------------------------------
A-----------------------------------------------------------------------
E-----------------------------------------------------------------------


20140401

ERIC CLAPTON OLD LOVE SOLO TAB (LIVE AT ROYAL ALBERT HALL 1990)

Eric Clapton plays Old Love at Royal Albert Hall in 1990.
The original video title says: 'Eric Clapton Old Love 24 Nights Royal Albert Hall 1990'
There are 2 awesome guitar solos by 4:30 and by 8:44 till the end.
See the TAB of these solos under the video.


ERIC CLAPTON OLD LOVE SOLO TAB

PDF >>

Solo by 4:30

e-----------------------------------------------------------------------
B-15(17)---------------~~~~~--------------------------------------------
G-----------------------------------------------------------------------
D-----------------------------------------------------------------------
A-----------------------------------------------------------------------
E-----------------------------------------------------------------------


e-----------------------------------------------------------------------
B-(17)(15)p13-15.--15.--15.--15.--15(17)--------(15)p13-----------------
G-------------------------------------------------------14-14-14--\\\---
D-----------------------------------------------------------------------
A-----------------------------------------------------------------------
E-----------------------------------------------------------------------


e-----------------------------------------------------------------------
B-13---15---13h15p13-12---13---12h13p12---------------------------------
G---------------------------------------14-12-14-12---------------------
D---------------------------------------------------14\12p10------------
A------------------------------------------------------------12-12~-----
E-----------------------------------------------------------------------