Showing posts with label run run rudolph. Show all posts
Showing posts with label run run rudolph. Show all posts

20131226

BILLY IDOL RUN RUDOLPH RUN TAB

There is a cool song on Billy Idol's christmas album (Happy Holidays) called  
Run Rudolph Run. Cool Chuck Berry style guitar solos ...
See the TAB below.



BILLY IDOL RUN RUDOLPH RUN TAB

PDF >>

Intro

e------7-7-7-7-7--------------------------------------------------------
B------7-7-7-7-7-9-7-----7-7-7-7-7-7------------------------------------
G-/8-------------9-7h8---7-7-7-7-7-8------------------------------------
D----------------------9-------------9----------------------------------
A-----------------------------------------------------------------------
E-----------------------------------------------------------------------


e---------7-7---------7---------7-------7-10-10'------------------------
B---------7-7-7-------7-7-------7-------7-9--9'-------------------------
G-9(11)-------9(11)-----9(11)-----9(11)---------------------------------
D-----------------------------------------------------------------------
A-----------------------------------------------------------------------
E-----------------------------------------------------------------------



e-----------------------------------------------------------------------
B-----------------------------------------------------------------------
G-----------------------------------------------------------------------
D-9-9-11-9-9-9-11-9--9-9-11-9-9-9-11-9----------------------------------
A-7-7-7--7-7-7-7--7--7-7-7--7-7-7-7--7----------------------------------
E-----------------------------------------------------------------------
  x x x  x x x x  x  x x x  x x x x  x


e-----------------------------------------------------------------------
B-----------------------------------------------------------------------
G-----------------------------------------------------------------------
D-----------------------------------------------------------------------
A-9-9-11-9-9-9-11-9--9-9-11-9-9-9-11-9----------------------------------
E-7-7-7--7-7-7-7--7--7-7-7--7-7-7-7--7----------------------------------
  x x x  x x x x  x  x x x  x x x x  x