Showing posts with label sailors hornpipe. Show all posts
Showing posts with label sailors hornpipe. Show all posts

20161117

SAILOR'S HORNPIPE TAB (TENOR GUITAR COVER BY DAVID HANSEN)

David Hansen plays Sailor's Hornpipe on his tenor guitar.
The tuning is GDAE (from the lower to the higher string)
See the TAB below.




SAILOR'S HORNPIPE TAB

GP5 + GP6 + PDF >>

E---3--2-3.--------------------3.--3---2--3-----------------------------
A--------------------5--3-2--5------------------------------------------
D------------5.--5.-----------------------------------------------------
G-----------------------------------------------------------------------


E---5.----------5--3-2.----------0--2-----------------------------------
A-------0---0------------5.--5------------------------------------------
D-----------------------------------------------------------------------
G-----------------------------------------------------------------------


E---3--2-0----0---------------------------------------------------------
A-----------5----5-3--2-3--2-0----0-------------------------------------
D-------------------------------5----5-4--2-----------------------------
G-----------------------------------------------------------------------


E-----------------------------------3--2--------------------------------
A-----------0----2-0--3-2-----------------------------------------------
D---0--5-4----5-------------5.--5.--------------------------------------
G-----------------------------------------------------------------------


20141109

SAILORS HORNPIPE TAB (FLATPICKING COVER BY SHANE BUMGARNER)

The original video title says: Flatpicking Sailors Hornpipe.
An old english tune played with two acoustic guitars.
See the TAB under the video.


SAILORS HORNPIPE TAB

PDF >>

Intro

e-----------------------------------------------------------------------
B-----------------------------------------------------------------------
G-----------------------------------------------------------------------
D-0-------0-------0-------0---------------------------------------------
A-3/5---5-5---5-5-5---5-5-5---------------------------------------------
E-----------------------------------------------------------------------


Guitar 1
      D                               E               A       
e-------------------------------2-0---0-----------0---------------------
B-3-2-3-------------------3-2-3-----3---------------3-2-0---------------
G-----------------2-0---2---------------------------------2-1-2---------
D---------0---0-4-----4-------------------2.--2-------------------------
A-----------------------------------------------------------------------
E-----------------------------------------------------------------------

      D       G       A       D       A               D
e-----------------------------------------------------------------------
B-0-2-3-2-0---0-------------------------------------------3.--3---------
G-----------2---2-0---0---------------------------0-------2.--2---------
D-------------------4---4-2-0-2-0-----------0-2-4---2-4---0.--0---------
A---------------------------------4-2-0-2-4-----------------------------
E-----------------------------------------------------------------------