Showing posts with label santana. Show all posts
Showing posts with label santana. Show all posts

20160803

SANTANA THE GAME OF LOVE FT. MICHELLE BRANCH TAB (GUITAR SOLO)

Carlos Santana and Michelle Branch play The Game of Love.
There is a great Santana guitar solo about 2:20.
See the Solo TAB under the video.



SANTANA THE GAME OF LOVE SOLO TAB

PDF >>

 ~ 2:20

e-----------------------------------------------------------------------
B------15.-------17(19)-----(19)(19)(19)(19)(19)(19)(19)(19)(19)(19)(19)
G---/16-----------------------------------------------------------------
D-----------------------------------------------------------------------
A-----------------------------------------------------------------------
E-----------------------------------------------------------------------


e-----------------------------------------------------------------------
B---(19)(19)(19)(19)(19)---17(19)-----(19)(19).--17.--15.---------------
G-----------------------------------------------------------------------
D-----------------------------------------------------------------------
A-----------------------------------------------------------------------
E-----------------------------------------------------------------------


e--------------------------------------15.--14h15~----14----------------
B---17-15~----15~--------h17.------------------------------15.----------
G-----------------------------------------------------------------------
D-----------------------------------------------------------------------
A-----------------------------------------------------------------------
E-----------------------------------------------------------------------


20131209

CARLOS SANTANA REVELATIONS TAB (COVER BY STEVIE LAMONT)

Stevie Lamont plays a cool guitar cover of Santana's Revelations.
See the TAB under the video.



CARLOS SANTANA REVELATIONS TAB

PDF >>

Part 1

e-7h8p7--------------------------7h8p7----------------------------------
B-------5~-----------------------------5~-------------------------------
G-----------------------------------------------------------------------
D-----------------------------------------------------------------------
A-----------------------------------------------------------------------
E-----------------------------------------------------------------------


e-7h8p7.----------------------------------------------------------------
B-----------------------------------------------------------------------
G---------7/9---\7/9~~~-----------\7~-----------------------------------
D-----------------------------------------------------------------------
A-----------------------------------------------------------------------
E-----------------------------------------------------------------------


e---------------------5h6p5---------------------------------------------
B-------5~------6.----------8~------------------------------------------
G-5h7-----------------------------------7/9---\7/9~---------------------
D-----------------------------------------------------------------------
A-----------------------------------------------------------------------
E-----------------------------------------------------------------------


20130827

CARLOS SANTANA OYE COMO VA TAB



Carlos Santana - Oye Como Va guitar tab according to the album version.



CARLOS SANTANA OYE COMO VA TAB                  

PDF >>

Intro solo

e-5.---5-7-8-10.---7----------------------------------------------------
B--------------------8h10-----------------------------------------------
G-----------------------------------------------------------------------
D-----------------------------------------------------------------------
A-----------------------------------------------------------------------
E-----------------------------------------------------------------------


e-5.---5-7-8-10---7-----5-----------------------------------------------
B---------------------8-------------------------------------------------
G-------------------------7(8)(7)-5.------------------------------------
D-----------------------------------------------------------------------
A-----------------------------------------------------------------------
E-----------------------------------------------------------------------


20130804

CARLOS SANTANA I LOVE YOU MUCH TOO MUCH TAB

There is a short video how to play the main parts of I Love You Much Too Much.
This is a nice instrumental love song by Carlos Santana.
See the TAB below.



CARLOS SANTANA I LOVE YOU MUCH TOO MUCH TAB      

PDF >>

Part 1

e------7----------------------------------------------------------------
B------------10.---8-7-10~-------------\--------------------------------
G-----------------------------------------------------------------------
D-9.--------------------------------------------------------------------
A-----------------------------------------------------------------------
E-----------------------------------------------------------------------


e-----------------------------------------------------------------------
B------10-----9.---8-7-8~-----------------------------------------------
G-----------------------------------------------------------------------
D-9.--------------------------------------------------------------------
A-----------------------------------------------------------------------
E-----------------------------------------------------------------------


20130615

CARLOS SANTANA EL FAROL TAB AND GUITAR LESSON


Short guitar lesson how to play Carlos Santana - El Farol. (Supernatural album)
However in the video only the main parts of the song are shown, the TAB covers the complete album version.



CARLOS SANTANA EL FAROL TAB

PDF >>

Part 1

e-----------------------------------------------------------------------
B-13~------------------------13-12~-------------------------------------
G-----------------------------------------------------------------------
D-------------14-15~------------------------12h14~----------------------
A-----------------------------------------------------------------------
E-----------------------------------------------------------------------


e-----------------------------------------------------------------------
B-----------------------------------------------------------------------
G-14~------------------------------------14--13~------------------------
D--------------------------------12--15------------15-12h14---12h14p12--
A-------------15-17~---------14-----------------------------------------
E-----------------------------------------------------------------------


20130611

CARLOS SANTANA EUROPA TAB AND GUITAR LESSON


Short guitar lesson how to play Europa by Carlos Santana.
This lesson shows only the main parts.
See the TAB of the complete album version under the video.



CARLOS SANTANA EUROPA TAB

PDF >>

Part 1

e------8---10.---10/11---10.-----8--------------------------------------
B-8.-------------------------------11.---8h9~---------------------------
G-----------------------------------------------------------------------
D-----------------------------------------------------------------------
A-----------------------------------------------------------------------
E-----------------------------------------------------------------------


e------8-8h10-8~--------------------------------------------------------
B-9-11-----------------11.----------------------------------------------
G------------------------------10---/12~--------------------------------
D-----------------------------------------------------------------------
A-----------------------------------------------------------------------
E-----------------------------------------------------------------------


20130610

EUROPA ACOUSTIC TAB (COVER BY KZKW)


Exciting fingerstyle guitar cover of Santana's Europa played by KZ KW.
CAPO on the 2nd, TAB helps below.



EUROPA ACOUSTIC TAB

PDF >>

Part 1

e-----4-6-6/7-6-4-2-----------------------------------------------------
B-4.--------------------------------------------------------------------
G-----------------------------------------------------------------------
D-----------------------------------------------------------------------
A-----------------------------------------------------------------------
E-----------------------------------------------------------------------


e-----------------------------------2---------2-4-4h6-4---2-------------
B-5---------------------------5.----2-----4/5---------------2-----------
G-4-----------------------4---------3-----------------------------------
D-6-------------------6-------------2-----------------------------------
A-4---------------------------------4-----------------------------------
E---------x---2---2-----------------2-----------------------------------


20130330

CARLOS SANTANA MOONFLOWER TAB AND LESSON(FLOR D'LUNA)

Moonflower (Flor d'Luna) is a classic song by Carlos Santana from 1977.
There are many backing tracks available to play along.  
TAB helps below.



CARLOS SANTANA MOONFLOWER TAB (FLOR D'LUNA)        

PDF >>

Main Riff

e-----------------------------------------------------------------------
B------------15~------13----------------15--13--------------------------
G------14.---------------15-14~-----------------15.--14----(15)(14)-12~-
D-12--------------------------------------------------------------------
A-----------------------------------------------------------------------
E-----------------------------------------------------------------------


e-----------------------------------------------------------------------
B------------------------------------------------13~------------15~-----
G------------12------------14~--------14---15.------------15-14---------
D-14---15.-----------15-14----------------------------------------------
A-----------------------------------------------------------------------
E-----------------------------------------------------------------------


e-----------------------------------------------------------------------
B-----------------------------------------------------------------------
G-12--14--14h15--14.--12--12h14-------12--12h14.--14p12-------12--------
D---------------------------------15----------------------15------------
A-----------------------------------------------------------------------
E-----------------------------------------------------------------------


20130206

CARLOS SANTANA SAMBA PA TI TAB


Short video how to play the main parts of Samba Pa Ti by Carlos Santana.
See the TAB of the complete song under the video.



CARLOS SANTANA SAMBA PA TI TAB

PDF >>

e-----------------------------------------------------------------------
B-------------------4/5---8.-----------------(-----6h7----)-------------
G-----4.---5---7.--------------5h7~~~--------(-4h7--------)-------------
D-7---------------------------------------------------------------------
A-----------------------------------------------------------------------
E-----------------------------------------------------------------------


e-----------------------------------------------------------------------
B------------4/5---8.--------------------------(--------6/7--7--)-------
G---4.-5---7------------5h7~~------------------(----4h7---------)-------
D-7--------------------------------------------(--7-------------)-------
A-----------------------------------------------------------------------
E-----------------------------------------------------------------------


e-5h7--5h7p5-------------5----------7---------------\-------------------
B------------8~~~--p5.---8(10)~~----10(12)~~~-------\-------------------
G-----------------------------------------------------------------------
D-----------------------------------------------------------------------
A-----------------------------------------------------------------------
E-----------------------------------------------------------------------


20121217

CARLOS SANTANA BLACK MAGIC WOMAN TAB


Steve Hague shows us how to play Black Magic Woman by Carlos Santana.
Black Magic Woman was originally written by a hungarian guitarist, Gabor Szabo.
See the TABS of the complete album version of Black Magic Woman below.



CARLOS SANTANA BLACK MAGIC WOMAN TAB

PDF >>

Intro solo

e-----------------------------------------------------------------------
B-6h8p6~~~~~------------------------------------------------------------
G--------------------------------7/9\7~~~~~~~---------------------------
D-----------------------------------------------------------------------
A-----------------------------------------------------------------------
E-----------------------------------------------------------------------


e-----------------------------------------------------------------------
B-6h8p6~~~~~------------------8.----------------------------------------
G--------------------------------7/9\7~~~~~~~---------------------------
D-----------------------------------------------------------------------
A-----------------------------------------------------------------------
E-----------------------------------------------------------------------


e-----------------------------------------------------------------------
B-----------------------------------------------------------------------
G-14.-----12.-----10\9~~--------12.-----10.-----9\7~~~------------------
D-------x-------x---------------------x-------x-------------------------
A-----------------------------------------------------------------------
E-----------------------------------------------------------------------


e---------------------------------------------------------------10.-----
B-------------------------------------------------------------10--------
G-14.-----12.-----10\9~~--------12.-----10.-----9.----------10----------
D-------x-------x---------------------x-------x---------12--------------
A-----------------------------------------------------12--12------------
E---------------------------------------------------10------------------


e-10--------------------------------------------------------------------
B----13-(15)(13)p10--13(15)~~---------(13)p10.--------------------------
G-----------------------------------------------------------------------
D-----------------------------------------------------------------------
A-----------------------------------------------------------------------
E-----------------------------------------------------------------------


e---------10------------------------------------------------------------
B-13(15)-----13-10------------------------------------------------------
G------------------12-(14)(12)p10\9~~-----------------------------------
D-----------------------------------------------------------------------
A-----------------------------------------------------------------------
E-----------------------------------------------------------------------


e---------12h13.--12.--13p12p10-----------------------------------------
B-10-13.------------------------13(15)--(13)(15)(13)p10.----------------
G-----------------------------------------------------------------------
D-----------------------------------------------------------------------
A-----------------------------------------------------------------------
E-----------------------------------------------------------------------


e-----------10----------------------------------------------------------
B-13(15)-------13-10----------------------------------------------------
G----------------------12(14)--------(14)p12.---------------------------
D-----------------------------------------------------------------------
A-----------------------------------------------------------------------
E-----------------------------------------------------------------------


e------10---12-13(15)~~-----15(17)--------(15)p13--13~-----18(20)~\-----
B----11------------------------------------------15---------------------
G-12--------------------------------------------------------------------
D-----------------------------------------------------------------------
A-----------------------------------------------------------------------
E-----------------------------------------------------------------------


e-10.------------------------------------------------------------10.----
B---------------------10-----------------------------------------10.----
G-----(14)(12)p10h12-----12-10h12p10-----------------------------10.----
D------------------------------------12--10-12-10-----------------------
A-------------------------------------------------12-11-10\8------------
E------------------------------------------------------------10-8-------


Chords

e----5-------5-------5-------3-------5---5---5--------------------------
B----6-------5-------6-------3-------6---5---6--------------------------
G----5-------5-------5-------3-------5---5---5--------------------------
D----7-------5-------7-------3-------7---5---7--------------------------
A----5-------7-------5-------5-------5---7---5--------------------------
E------------5---------------3-----------5------------------------------


Solo (1:52)

e----------10-----------------------------------------------------------
B-13(15)------13(15)---(15)(13)p10--------------------------------------
G-----------------------------------------------------------------------
D-----------------------------------------------------------------------
A-----------------------------------------------------------------------
E-----------------------------------------------------------------------


e-13p12p10.-------------------------------------------------------------
B------------(15)(13)p10.-----------------------------------------------
G--------------------------(13)(12)p10\9~~------------------------------
D-----------------------------------------------------------------------
A-----------------------------------------------------------------------
E-----------------------------------------------------------------------


e--------------12-----h13p12p10--------------------13(15)---------------
B------10---13------------------13(15)~~--------------------------------
G-9/10------------------------------------------------------------------
D-----------------------------------------------------------------------
A-----------------------------------------------------------------------
E-----------------------------------------------------------------------


e-15(17)(15)p13---15(17)(15)p13~~------------18(20)~~\\-----------------
B-----------------------------------------------------------------------
G-----------------------------------------------------------------------
D-----------------------------------------------------------------------
A-----------------------------------------------------------------------
E-----------------------------------------------------------------------


e-12h13---p12p10.--12h13---p12p10.-----------10-------------------------
B-----------------------------------13(15)~-------13---10---------------
G-----------------------------------------------------------------------
D-----------------------------------------------------------------------
A-----------------------------------------------------------------------
E-----------------------------------------------------------------------


e-----------------------------------------------------------------------
B--------------------10~-------10---13--p10-----------------------------
G-12(14)(12)p10------10~--------------------12(14)(12)p10---------------
D---------------12.-------12------------------------------12.-----------
A-----------------------------------------------------------------------
E-----------------------------------------------------------------------


e-----------------------------------------------------------------------
B-13(15).-------15(17).---------13(15).---------------------------------
G--------------------------------------------------(14)(12)(14)~~~------
D-----------------------------------------------------------------------
A-----------------------------------------------------------------------
E-----------------------------------------------------------------------


e------------10---------------------------------------------------------
B-13(15)~~------13-10---------------------------------------------------
G---------------------12-(14)(12)p10\9~~~-------------------------------
D-----------------------------------------------------------------------
A-----------------------------------------------------------------------
E-----------------------------------------------------------------------


e----------------10----------------------------------10-----------------
B----10-13(15)--------13(15)---(13)(15)(13)p10.------13(15)-------------
G-10----------------------------------------------------------10-10~----
D-----------------------------------------------------------------------
A-----------------------------------------------------------------------
E-----------------------------------------------------------------------


e---------10---12-13(15)~~-------15(17)----18(20)---20(22)(20)(22)~\----
B------11---------------------------------------------------------------
G-12--------------------------------------------------------------------
D-----------------------------------------------------------------------
A-----------------------------------------------------------------------
E-----------------------------------------------------------------------


e----------------10~~-----------10-------10-----13p10h13p10h13p10-------
B-------------13------10---13------10h13--------------------------------
G-12(14)~~--------------------------------------------------------------
D-----------------------------------------------------------------------
A-----------------------------------------------------------------------
E-----------------------------------------------------------------------


e-----------------------------------------------------------------------
B-13p10h13p10-----------------------------------------------------------
G-------------12p10h12p10------------------------------------9h10~~-----
D-------------------------12---10---12\----------------10h12------------
A---------------------------------------------10h11h12------------------
E-----------------------------------------------------------------------








20121105

SANTANA CORAZON ESPINADO TAB (SOLOS)


Short lesson how to play the solo parts of Corazon Espinado by Santana. (feat. Mana)
See the TAB under the video.



CARLOS SANTANA CORAZON ESPINADO TAB


Intro solo

e--------------------------------7--------------------------------------
B----------------------------7-------11-----7---------------------------
G-------7----------------7--------------------9---7-9(11)-9(11)---------
D---7-9---9-7-9~--------------------------------------------------------
A-9---------------------------------------------------------------------
E-----------------------------------------------------------------------


e-----------------------------------------------------------------------
B-----------------------------------------------------------------------
G-(11)(9).---6.---7---9.------------------------------------------------
D-----------------------------------------------------------------------
A-----------------------------------------------------------------------
E-----------------------------------------------------------------------


e------7h10p7----7~--------------14---18(19)(18)'---14------------------
B-7h10--------10------------15-------------------------17---15----------
G-----------------------------------------------------------------------
D-----------------------------------------------------------------------
A-----------------------------------------------------------------------
E-----------------------------------------------------------------------