Showing posts with label score. Show all posts
Showing posts with label score. Show all posts

20170214

ZAKK WYLDE DARKEST HOUR TAB (GUITAR SOLO COVER BY GAKU)


Zakk Wylde - Darkest Hour guitar solo cover played by Gaku.
Download the GP6, GP5 and PDF files below.



ZAKK WYLDE DARKEST HOUR SOLO TAB

GP5 + GP6 + PDF >>

e--10-------9-------7---------------------------------------------------
B--------------------10-8-7-10-8-7--------------------------------------
G---------------------------------9-7-6-9-7-6---------------------------
D--------------------------------------------9-7-5-9-7-5------x-x-x-----
A-------------------------------------------------------9-7-5-x-x-x-----
E-----------------------------------------------------------------------
                    x x x x x  x xx x x x x xx x x x x xx x x 


e-----------------------------------------------------------------------
B--7----------------7---------------7--8--7--7--------------------------
G--9(11)(11)--------9(11)~~~-----------------9(11)------(11)(9)p7-9~~~\-
D-----------------------------------------------------------------------
A-----------------------------------------------------------------------
E-----------------------------------------------------------------------


e-----------------------------------------------------------------------
B--x-x-10(12)(10)(12)(10)(12)--(10)--12(14)(12)(14)(12)(14)--(12)-------
G--x-x------------------------------------------------------------------
D-----------------------------------------------------------------------
A-----------------------------------------------------------------------
E-----------------------------------------------------------------------

20170209

SOLAS JOHNNY'S GONE FOR A SOLDIER TAB (INTRO + VERSE)


Johnny's Gone For A Soldier based on the traditional Irish song, Suil a Ruin.
This version by Solas is played in Double Dropped D tuning with Capo on the 2nd fret.
Download the Guitar Pro Tab below.



SOLAS JOHNNY'S GONE FOR A SOLDIER TAB

GP5 + GP6 + PDF >>

Intro Solo

d---5-------4--5-4-------4-4\2--0---------------------------------------
B-------------------5---------------------------------------------------
G---------------------5-----------2h4-----------------------------------
D-----------------------------------------------------------------------
A-----------------------------------------------------------------------
D-----------------------------------------------------------------------


d-----------------0h2--5-3\2--0-----0-----------------------------------
B---------------------------------5-------------------------------------
G---4\2-0---0h2h4-----------------------0-------------------------------
D-----------------------------------------------------------------------
A-----------------------------------------------------------------------
D-----------------------------------------------------------------------


d---5--4-----------------------5--4-------------------------------------
B---------5--6/7--7\5--3-------------5----------------------------------
G-------------------------3/4-------------------------------------------
D-----------------------------------------------------------------------
A-----------------------------------------------------------------------
D-----------------------------------------------------------------------


20170128

ROGER DYKE STREETS OF LONDON TAB (INSTRUMENTAL GUITAR COVER)

Roger Dyke plays an instrumental guitar cover of Streets of London.
Original song by Ralph McTell.
Download the Guitar Pro Tab below.



ROGER DYKE STREETS OF LONDON TAB

GP5 + GP6 + PDF >>

#1

e---13/14---14~----14-12-10.---9~---------------------------------------
B---14/15---15~----15-14-12.--10~---------------------------------------
G-----------------------------------------------------------------------
D-----------------------------------------------------------------------
A-----------------------------------------------------------------------
E-----------------------------------------------------------------------


e---6/7---7~----7-5-3---3/5~--------------------------------------------
B---7/8---8~----8-7-5---5/7~--------------------------------------------
G-----------------------------------------------------------------------
D-----------------------------------------------------------------------
A-----------------------------------------------------------------------
E-----------------------------------------------------------------------


e---13/14---14~----14-12-10.---9~---------------------------------------
B---14/15---15~----15-14-12.--10~---------------------------------------
G-----------------------------------------------------------------------
D-----------------------------------------------------------------------
A-----------------------------------------------------------------------
E-----------------------------------------------------------------------



20170115

THE SPOTNICKS KARELIA TAB (GUITAR PRO - 1966)


The Spotnicks - Karelia from 1966. Lead guitar line.
Download the Guitar Pro Tab below.



THE SPOTNICKS KARELIA TAB

GP5 + GP6 + PDF >>

e----------5----------------------3----------------------1--------------
B-------5----------5-----------3----------3-----------1----------1------
G-----5--------------5.------4--------------4.------2--------------2.---
D-----------------------------------------------------------------------
A-----------------------------------------------------------------------
E-----------------------------------------------------------------------


e---0-------0---0---0-----0---------------------------------------------
B---0---------------------------0---1-----1-0-------0-------------------
G---1-----------------------2-------------------2-----------------------
D-----------------------------------------------------------------------
A-----------------------------------------------------------------------
E-----------------------------------------------------------------------


e-----1---1---0-----0---------------------------------------------------
B---0-----------------0---1---3---3--3-1.--0.---------------------------
G----------------------------------------------2------------------------
D-----------------------------------------------------------------------
A-----------------------------------------------------------------------
E-----------------------------------------------------------------------


20170110

GEORGE HARRISON SOMETHING TAB (INSTRUMENTAL GUITAR COVER BY CAUE LOBO)

Caue Lobo plays an instrumental guitar cover of Something by George Harrison.
Sounds amazing!
Download the Guitar Pro Tab below.



GEORGE HARRISON SOMETHING TAB

GP5 + GP6 + PDF >>

Part 1

e-----------------------------------------------------------------------
B-----------------------------------------------------------------------
G------2.--(5)(4)-2.--3-------4-----------------------------------------
D-----------------------------------------------------------------------
A-----------------------------------------------------------------------
E-----------------------------------------------------------------------


e-----------------------------------------------------------------------
B-----------------------------------------------------------------------
G---4/5---5-------5~----------5---4~------------------------------------
D---------------------------5-------------------------------------------
A-----------------------------------------------------------------------
E-----------------------------------------------------------------------


e-----------------------------------------------------------------------
B-----------------------------------------------------------------------
G---5\3-3-3.--3.--5.--5/7-----5.--5-------------------------------------
D----------------------------------5h7~----------\----------------------
A-----------------------------------------------------------------------
E-----------------------------------------------------------------------


20170105

YOU'LL NEVER WALK ALONE TAB (INSTRUMENTAL GUITAR COVER BY NEVILLE WORTHINGTON)

Neville Worthington plays an instrumental guitar cover of You'll Never Walk Alone.
The original song was written by Rogers and Hammerstein.
Download the Guitar Pro 6, GP5 and PDF files below.



YOU'LL NEVER WALK ALONE INSTRUMENTAL TAB

GP5 + GP6 + PDF >>

e-----------------------------------------------------------------------
B-----------------------------------------------------------------------
G-----------------------------------------------------------------------
D---2---0--------------------2---0--------------------------------------
A---------3------------------------3------------------------------------
E-----------------------------------------------------------------------


e-----------------------------------------------------------------------
B-----------------------------------------------------------------------
G-----------------------------------------------------------------------
D---2---3-5-----------------2-----0-------------------------------------
A-----------------------------------------------------------------------
E-----------------------------------------------------------------------


e-----------------------------------------------------------------------
B-----------------------------------------------------------------------
G-----------------------------------------------------------------------
D---2-3-----------------5---3-2-----------------5---2-0-----------------
A-----------------------------------------------------------------------
E-----------------------------------------------------------------------


20161230

JOE BONAMASSA BRIDGE TO BETTER DAYS TAB (GUITAR SOLO, LIVE)

Joe Bonamassa plays a brilliant guitar solo from 2:03 to 3:44
On YouTube: 'Joe Bonamassa - Bridge To Better Days (Arhus Denmark - July 2009)'
Download the GP5, GP6 and PDF files below.



JOE BONAMASSA BRIDGE TO BETTER DAYS SOLO TAB

GP5 + GP6 + PDF >>

e-------------5-----------------5---------------------------------------
B-------------5-----------------5--------------5/7-x-5-5----------------
G--------------------------------------------------x--------------------
D----5-7~-------7~-----5-7~-------7~-----7p5---5/7-x-5-5---4---4-5-5-6-6
A--0--------0--------0--------0--------0-----7--------------------------
E--------------------------------------------------------x-2---2-3-3-4-4
   x        x        x        x        x


e-------------5-----------------5---------------------------------------
B-------------5-----------------5--------------5/7-x-5-5----------------
G--------------------------------------------------x--------------------
D----5-7~-------7~-----5-7~-------7~-----7p5---5/7-x-5-5---4---4-5-5-6-6
A--0--------0--------0--------0--------0-----7--------------------------
E--------------------------------------------------------x-2---2-3-3-4-4
   x        x        x        x        x


e-------------5-----------------5---------------------------------------
B-------------5-----------------5--------------5/7-x-5-5----------------
G--------------------------------------------------x--------------------
D----5-7~-------7~-----5-7~-------7~-----7p5---5/7-x-5-5---4---4-5-5-6-6
A--0--------0--------0--------0--------0-----7--------------------------
E--------------------------------------------------------x-2---2-3-3-4-4
   x        x        x        x        x



20161221

CELINO ROMERO LA PALOMA 2 TAB (CLASSICAL GUITAR COVER)

Celino Romero plays La Paloma 2, very nice classical guitar cover.
He is using Dropped D tuning.
Download the Guitar Pro tab below.



CELINO ROMERO LA PALOMA 2 TAB

GP5 + GP6 + PDF >>

e-----------------------------------------------------------------------
B-----------------------------------------------------------------------
G-----------------------------------------------------------------------
D------------0-----------------0-----------------0----------------------
A----------0-----0-----------0-----0-----------0-----0------------------
D--0-----------------0-----------------0--------------------------------
   x       x x   x   x       x x   x   x       x x   x


e-----------------------------------------------------------------------
B-----------------------------------------------------------------------
G-----------------------------------------------------------------------
D------------0---4-/-7~---------------------------------9~--------------
A----------0-----------------0-5.--0-------9---10-12--0-----------------
D--0-----------------0-----------------0--------------------------------
   x       x x


e-----------------------------------------------------------------------
B-----------------------------------------------------------------------
G-----------------------------------------------------------------------
D----11~---12-9-11----7---7\5--------------------------------<7>--------
A-------------------0---------------0-4.--7.-------------<7>------------
D--0-------------------------------------------<7>----------------------


20161017

RUCY THE BRIDE AND GROOM TAB (MAIN RIFF)


Rucy plays his original song 'The Bride And Groom' Brilliant lead guitar song.
See the TAB under the video.



RUCY THE BRIDE AND GROOM TAB

GP5 + GP6 + PDF >>

Part 1

e------11---10----------------------15----13-11\-----11----h13.---------
B-------------11\-/8h11~---/13\------------------/13--------------------
G---/8----8---------------------/12----12-------------------------------
D-----------------------------------------------------------------------
A-----------------------------------------------------------------------
E-----------------------------------------------------------------------


e-----------------------------------------------------------------------
B---11(13)---(11)~----------11(13)(11)-9-8------------------------------
G---x-----------------------x--------------11\10p8----------------------
D-----------------------------------------------------------------------
A-----------------------------------------------------------------------
E-----------------------------------------------------------------------


e--------10-------10-10h12~----------\----------------------------------
B-----------------------------------------------------------------------
G---9h10----10/12-------------------------------------------------------
D-----------------------------------------------------------------------
A-----------------------------------------------------------------------
E-----------------------------------------------------------------------


20160521

RIOT V TAKE ME BACK TAB (LEAD GUITAR LINE - GUITAR PRO TAB)

Riot V - Take Me Back lead guitar line.
See the TAB under the video.



RIOT - TAKE ME BACK TAB

GP5 + GP6 + PDF >>

Intro

e-----------------------------------------------------------------------
B-----------------------------------------------------------------------
G----------------------------0---2-------5---7~-------------------------
D----------------------------0---2-------5---7~-------------------------
A---5p3p0-6p0-10-7p0-6-5p3p0-------0-0-0--------------------------------
E-----------------------------------------------------------------------
                                   x x x

e-----------------------------------------------------------------------
B----------------------------------------3------------------------------
G----------------------------0---2-------0------------------------------
D----------------------------0---2-------0------------------------------
A---5p3p0-6p0-10-7p0-6-5p3p0-------0-0-0-x------------------------------
E----------------------------------------3------------------------------
                                   x x x

e-----------------------------------------------------------------------
B-----------------------------------------------------------------------
G----------------------------0---2-------5/7-5~-------------------------
D----------------------------0---2-------5/7-5~-------------------------
A---5p3p0-6p0-10-7p0-6-5p3p0-------0-0-0--------------------------------
E-----------------------------------------------------------------------
                                   x x x