Showing posts with label shadows. Show all posts
Showing posts with label shadows. Show all posts

20161123

THE SHADOWS SLEEPWALK TAB (ROCK ON WITH THE SHADOWS, 1961)

Sleepwalk is a legendary song from Hank Marvin and The Shadows.
The tablature follows the record on the album "Rock on with the Shadows" from 1961.
Enjoy it !



THE SHADOWS SLEEPWALK TAB

GP5 + GP6 + PDF >>

Part 1
                                tremolo
e--------------12/15~---------------------------15.---------------------
B------------13---------------------------------------------------------
G------12-14-----------------12-(11)-(12)~-----------12~----------------
D-----------------------------------------------------------------------
A-----------------------------------------------------------------------
E-----------------------------------------------------------------------

                         tremolo
e-----------------------------------------------------------------------
B---------13-13~-------8-(7)-(8)~---------------------------------------
G---12-14---------------------------------------------------------------
D-----------------------------------------------------------------------
A-----------------------------------------------------------------------
E-----------------------------------------------------------------------


e--------------------8~-------------------------------------------------
B---6-8-8h9-8~---6\5-----------8---8~-----------------------------------
G-----------------------------------------------------------------------
D-----------------------------------------------------------------------
A-----------------------------------------------------------------------
E-----------------------------------------------------------------------


20161121

THE SHADOWS SLEEPWALK TAB (LIVE FROM THE FINAL TOUR 2004)

The Shadows - Sleepwalk - live version from The Final Tour (2004)
Probably sounds better than the original record.
Lead guitar line + chords below.



THE SHADOWS SLEEPWALK TAB (LIVE)

GP5 + GP6 + PDF >>

Part 1
                            tremolo
e------------15~---15~--------------------------------------------------
B---------13------------------------------------------------------------
G---12/14----------------12-(11)-(12)~----------------------------------
D-----------------------------------------------------------------------
A-----------------------------------------------------------------------
E-----------------------------------------------------------------------

       tremolo
e-----------------------------------------------------------------------
B---13-(12)-(13)~------8---8~-------------------------------------------
G-----------------------------------------------------------------------
D-----------------------------------------------------------------------
A-----------------------------------------------------------------------
E-----------------------------------------------------------------------

                                   tremolo
e------------------------8~---------------------------------------------
B---6-8-8(9)---(8)---6\5---------8-(7)-(8)~-----------------------------
G-----------------------------------------------------------------------
D-----------------------------------------------------------------------
A-----------------------------------------------------------------------
E-----------------------------------------------------------------------


20130902

TOMMY EMMANUEL PHIL EMMANUEL SHADOWS MEDLEY TAB

It seems like someone likes playing the guitar ... The Emmanuel brothers (Tommy and Phil Emmanuel) make a cool performance of some nice Shadows songs. There are some cool extra licks beside the original melodies. See the TAB below.


TOMMY AND PHIL EMMANUEL SHADOWS MEDLEY TAB

PDF >>

Apache

e------------------------3/5-3--------------------------------3/5-3-----
B---1-3-(5)(3)---------1-------5---------1-3-(5)(3)---------1-------5---
G-2------------------2-----------------2------------------2-------------
D-----------------------------------------------------------------------
A-----------------------------------------------------------------------
E-----------------------------------------------------------------------


20130118

THE SHADOWS THEME FOR YOUNG LOVERS TAB

The Shadows - Theme For Young Lovers played by Gerard Gabriel.
All you need is a nice Fender Stratocaster, some reverb and a tremolo bar.
See the TAB under the video.



THE SHADOWS THEME FOR YOUNG LOVERS TAB

GP5 + GP6 + PDF >>

Part 1

e-----------------------------------------------------------------------
B---15-14-12-14-12-------7-------7-------15-14-12-14-12------7----------
G--------------------------9-7-9-------------------------------9-7--9---
D-----------------------------------------------------------------------
A-----------------------------------------------------------------------
E-----------------------------------------------------------------------


Part 2

e-----------------------------------------------------------------------
B-----------------------------------------------------------------------
G-------------------------------------------------------------2---------
D-----------0-------2---4---2-0-----------0---0-------2---4-----4-------
A---0---2-----------------------------2---------------------------------
E-----------------------------------------------------------------------


e-----------------------------------------------------------------------
B-----------------------------------------------------------------------
G-----------2-----------2---4---2---------------------------------------
D---0---4-----------4---------------4---0---2---------------------------
A-----------------------------------------------------------------------
E-----------------------------------------------------------------------