Showing posts with label slash. Show all posts
Showing posts with label slash. Show all posts

20161013

SLASH & MYLES KENNEDY BACK FROM CALI TAB (UNPLUGGED)

Slash & Myles Kennedy perform 'Back From Cali' with 2 acoustic guitars.
Great unplugged version, half-step down tuning.
Download the Guitar Pro Tab of the intro part.



SLASH & MYLES KENNEDY BACK FROM CALI TAB

GP5 + GP6 + PDF >>

Intro

eb-----------------------------------------------------------------------
Bb----------0-------3-0.--0.--0-----0-------x-------5\3.--3--------------
Gb---4------2h4.----4-4.--2.--4p2.--1~------x-------------2---2----------
Db---4------4-------4-----4.--4-----2~------x---4/6-6\4.--4--------------
Ab---2----------------------------------------------------------0.-------
Eb-----------------------------------------------------------------------


eb-----------------------------------------------------------------------
Bb----------0-------3-0.--0.--0-----0-------x-------5\3.--3--------------
Gb---4------2h4.----4-4.--2.--4p2.--1~------x-------------2---2----------
Db---4------4-------4-----4.--4-----2~------x---4/6-6\4.--4--------------
Ab---2----------------------------------------------------------0.-------
Eb-----------------------------------------------------------------------


eb-----------------------------------------------------------------------
Bb----------0-------3-0.--0.--0-----0-------x-------5\3.--3--------------
Gb---4------2h4.----4-4.--2.--4p2.--1~------x-------------2---2----------
Db---4------4-------4-----4.--4-----2~------x---4/6-6\4.--4--------------
Ab---2----------------------------------------------------------0.-------
Eb-----------------------------------------------------------------------

 

20160210

SLASH & MYLES KENNEDY PATIENCE TAB (ACOUSTIC LIVE @ MAX SESSIONS)

Slash & Myles Kennedy play Patience live at MAX Sessions.
They both use half step down tuning. The songs starts about 2:20.
See the TAB Slash's guitar playing under the video.


SLASH & MYLES KENNEDY PATIENCE TAB (ACOUSTIC)

PDF >>

Intro

eb---0-------0----------------------------------------------------------
Bb---1---------------3p1---0h1------------------------------------------
Gb---0-------------------------0---0-----0---------0-------0------------
Db---2-------------2-----2-------2-----0-----------------0---0-----0----
Ab---3-----------3-------------------2---------0-------2-------2--------
Eb---------------------------------------------------3-----------3------


eb--------------------------------------------0h2---2-3-2-----2---------
Bb--------2h3-2-------------2-3-2---------3-------3-------3-----3---8~--
Gb------2-------2---2-----2-------2-----2---2---------------2----/9-----
Db----2-----------2-----2-----------2-0---------------------------------
Ab--0-----------------0-------------------------------------------------
Eb----------------------------------------------------------------------


eb-------------------10-----------------------7-8-9-10------------------
Bb-----10-8-10(12)-----(12)(10)p8-10-8-10(12)----------10(12).---8~-----
Gb----------------------------------------------------------------------
Db----------------------------------------------------------------------
Ab----------------------------------------------------------------------
Eb----------------------------------------------------------------------


20160201

IN THE SUMMERTIME SLASH SOLO TAB (BILLY IDOL, SLASH, DEREK SHERINIAN VERSION)

Slash plays a great guitar solo in this song about 1:25.
In the summertime originally by Mungo Jerry.
See the solo tab under the video.



IN THE SUMMERTIME SLASH SOLO TAB

PDF >>

e----------12-----------------------------------------------------------
B--------12--15.---17~-------17p15--14-p12------------------------------
G---12h13-------------------------16------14--12h13~--------------------
D-----------------------------------------------------------------------
A-----------------------------------------------------------------------
E-----------------------------------------------------------------------


e----------12-----------------------------------------------------------
B--------12--15.--17~----17(20)----(17)-12----15-(15)(14)p12----12------
G---12h13---------------------------------14----------------14----------
D-----------------------------------------------------------------------
A-----------------------------------------------------------------------
E-----------------------------------------------------------------------


e-----------------------------------------------------------------------
B--------12---14---12-------12------------------------------------------
G---12h13---13---13---11/13---13\11p9-11--9----9------------------------
D------------------------------------------11---------------------------
A-----------------------------------------------------------------------
E-----------------------------------------------------------------------


20151022

SLASH & MYLES KENNEDY STARLIGHT TAB (LIVE ACOUSTIC INTRO)

Slash & Myles Kennedy perform Starlight acoustic live at Max Sessions.
They both use half-step-down tuning.
See the TAB of the intro part below.


SLASH & MYLES KENNEDY STARLIGHT TAB

GP5 + GP6 + PDF >>

Intro

eb----------------------------------------------------------------------
Bb--------------------10----10.-----------------------------------------
Gb--------------------9h11--9.---9-------------9------------------------
Db---9h11~-----------------------9h11-9\7-9/11--------------------------
Ab---0------------------------------------------------------------------
Eb----------------------------------------------------------------------


eb----------------------------------------------------------------------
Bb-----------10----10.--------------------------------------------------
Gb-----------9h11--9.---9----9------------------------------------------
Db----------------------9h11--------------------------------------------
Ab---0------------------------------------------------------------------
Eb----------------------------------------------------------------------


eb-------------------------12-------------------------------------------
Bb----------9-------9h10--------10----9-------9-------9h10-9---9----9---
Gb--------------------------------9----------------------------9h11-9---
Db--------9-------9------9----------9-9-------9-----9-9----9------------
Ab----------------------------------------------------------------------
Eb--0-------------------------------------------------------------------



20140713

SLASH & MYLES KENNEDY SWEET CHILD O' MINE TAB (ACOUSTIC, LIVE, MAX SESSIONS)

Slash and Myles Kennedy play Sweet Child O' Mine on the Australian Max Sessions.
Two acoustic guitars in half step down tuning and Myles' voice.
See the TAB of Slash's playing under the video.


SLASH & MYLES KENNEDY SWEET CHILD O' MINE TAB

PDF >>

Part 1

D#-------------15----14----------------15----14-------------------------
A#----15----------------------15----------------------------------------
F#-------14-12----14----14-------14-12----14----14----------------------
C#-12----------------------12-------------------------------------------
G#----------------------------------------------------------------------
D#----------------------------------------------------------------------


D#-------------15----14----------------15----14-------------------------
A#----15----------------------15----------------------------------------
F#-------14-12----14----14-------14-12----14----14----------------------
C#-14----------------------14-------------------------------------------
G#----------------------------------------------------------------------
D#----------------------------------------------------------------------



D#-------------15----14----------------15----14-------------------------
A#----15----------------------15----------------------------------------
F#-12----14-12----14----14-12----14-12----14----14----------------------
C#----------------------------------------------------------------------
G#----------------------------------------------------------------------
D#----------------------------------------------------------------------


20140305

GUNS 'N' ROSES KNOCKING ON HEAVENS DOOR INTRO TAB (LIVE IN PARIS 1992)

Slash plays a brilliant intro with a 12 stringed guitar. This is a live performance of Knockin' on Heavens Door with Guns'N'Roses in Paris, 1992.
See the TAB of this particular intro (0:00 - 2:53) under the video.
Tune your guitar a half note down to get the right sound.


GUNS 'N' ROSES KNOCKING ON HEAVENS DOOR TAB

PDF >>

Part 1

D#----------------------------------------------------------------------
A#----------------------------------------------------------------------
F#----------------------------------------------------------------------
C#-------------------------------------------------------0h2------------
G#-----7h5-----------------------5h7---------0--------------------------
D#-0---------------------------------3'--3'------3'--0------------------


D#----------------------------------------------------------------------
A#----------------------------------------------------------------------
F#----------------------------------------------------------------------
C#-2-0-------0----------------------------------------------------------
G#-----2-1-2---0h1p0---1---0h1p0---0h1p0---1---0h1p0---0h1p0---1--------
D#-------------------3---3-------3-------3---3-------3-------3---3------


D#----------------------------------------------------------------------
A#----------------------------------------------------------------------
F#---------------------------------------------------0h2---p0-----------
C#---------0-----0---------------------------0---2----------------------
G#-0h1p0h2---2p1---2p1-0---1---0h1p0---0h1h2---2------------------------
D#-----------------------3---3-------3----------------------------------


20131209

SLASH & MYLES KENNEDY CIVIL WAR TAB (LIVE, ACOUSTIC, MAX SESSIONS)

Legendary acoustic live version of Civil War with Slash and Myles Kennedy. 
Slash plays awesome guitar solos in half step down tuning.
See the TAB under the video.



SLASH & MYLES KENNEDY CIVIL WAR TAB

PDF >>

Intro

D#----------------------------------------------------------------------
A#----------------------------------------------------------------------
F#-----------------0-------------------------------0--------------------
C#---------2-----------2-------2-----------2-----------2-------0--------
G#-----2-------2-----------2-----------2-------2-----------0h2----------
D#-0-------------------------------0------------------------------------


D#----------------------------------------------------------------------
A#----------------------------------------------------------------------
F#-----------------0-------------------------------0--------------------
C#---------0-----------0-------0-----------0-----------0-------0--------
G#-----2-------2-----------2-----------2-------2-----------0h2----------
D#-3-------------------------------3------------------------------------


D#----------------------------------------------------------------------
A#----------------------------------------------------------------------
F#-----------------0-------------------------------0--------------------
C#---------2-----------2-------2-----------2-----------2-------0--------
G#-----2-------2-----------2-----------2-------2-----------0h2----------
D#-0-------------------------------0------------------------------------


20131119

HAPPY BIRTHDAY SLASH TAB


Giuseppe Luzzi plays Happy Birthday Slash with his Les Paul guitar.
TAB under the video.



HAPPY BIRTHDAY SLASH TAB

PDF >>

e-0---------------------------------------------------------------------
B-1---------------------------------------------------------------------
G-0---------------------------------------------------------------------
D-2---------------------------------------------------------------------
A-3---------------------------------------------------------------------
E-----------------------------------------------------------------------


e-----------------------------------------------------------------------
B-----------------------------------------------------------------------
G-----------------------------------------------------------------------
D-5~------5-7~----5~------7/10-------9~---------------------------------
A-----------------------------------------------------------------------
E-----------------------------------------------------------------------


e-----------------------------------------------------------------------
B-----------------------------------------------------------------------
G-5-----------------------/7~--------5~---------------------------------
D-5-------5-7~----5---\-------------------------------------------------
A-----------------------------------------------------------------------
E-----------------------------------------------------------------------


20130827

AMERICAN NATIONAL ANTHEM TAB (COVER BY SLASH ON SUPERBOWL)

Slash plays the American National Anthem on his signature Cry Baby Wah Pedal. Alright, it may have not been his best but at least he gets some ovation at the end ...
Be Slash for 2 minutes and play the american national anthem with an electric guitar.
See the TAB below.


SLASH NATIONAL ANTHEM TAB                         

PDF >>

e-----------------------------------------------------------------------
B-----------------------------------5~----------------------------------
G-4~---1----------1~-------4~-------------------------------------------
D--------2~-------------------------------------------------------------
A-----------------------------------------------------------------------
E-----------------------------------------------------------------------


e-----------------------------------------------------------------------
B-7(9)---7-5~-----------------------------------------------------------
G-----------------1~-----3-----(4)~-------------------------------------
D-----------------------------------------------------------------------
A-----------------------------------------------------------------------
E-----------------------------------------------------------------------


20130527

GUNS N ROSES ROCKET QUEEN SOLO TAB (THOMAS75S)


Thomas75s plays Rocket Queen solo by Guns N Roses with a Gibson LesPaul. 
See the TAB below.



GUNS N ROSES ROCKET QUEEN SOLO TAB

PDF >>

e-----------------------------------------------------------------------
B-----------------------------------------------------------------------
G-x-x-11(13)---(11)---11(13)---(11)p9-11.--11(13).---9'-----------------
D-x-x-----------------------------------------------------11~~----------
A-----------------------------------------------------------------------
E-----------------------------------------------------------------------


e-----------------------------------------------------------------------
B-----------------------------------------------------------------------
G-----------------------9---11(13)------(11)p9-11(13)------11(13)-11~---
D-x-x-11\----------9h11-------------------------------------------------
A------------/11--------------------------------------------------------
E-----------------------------------------------------------------------


20121221

SLASH THE GODFATHER THEME TAB

Slash plays the Godfather theme song with his Gibson Les Paul live in Tokio.
Be careful, because his guitar is in half step down tuning.
See the TAB of the main melody below.



SLASH THE GODFATHER THEME TAB                                     

PDF >>

eb------------------------------------------------------------------
Bb-15~~----14-15-16~~----15---15------------------------------------
Gb---------------------------------15~~~-----\----------------------
Db------------------------------------------------------------------
Ab------------------------------------------------------------------
Eb------------------------------------------------------------------


eb------------------------------------------------------------------
Bb-15~~----14-15-16~~----15---15------------------------------------
Gb---------------------------------14~~~------\---------------------
Db------------------------------------------------------------------
Ab------------------------------------------------------------------
Eb------------------------------------------------------------------


eb------------------------------------------------------------------
Bb-15~~----14-15-18~~----15---14---(16)---(14)~~~-------------------
Gb------------------------------------------------------------------
Db------------------------------------------------------------------
Ab------------------------------------------------------------------
Eb------------------------------------------------------------------